Thursday - Tomorrow Ill Be You Chords & Tabs

 

Tomorrow Ill Be You Chords & Tabs

Thursday Chords & Tabs

Version: 1 Type: Bass Tab 0 ratings
1 star 2 stars 3 stars 4 stars 5 stars
comments

Tomorrow Ill Be You Bass Tab

   
Intro:

G --------------------------------------|
D --------------------------------------|
A --------------------------------------|
D 9-9999-9-9999999990-0000-0-0000000000-|

G -------------------|
D -------------------|
A -------------------|
D 5-5555-5-555555555-|

All of that twice

Then

G ---------|
D ---------|
A ---------|
D 888888888

Verse:

G ---------------------------|
D ---------------------------|
A ---------------------------|
D 9-9-994-4-445-5-555-5-55---|  x4

Okay, this part is kind of hard,
After the verse hit D9 and let
It ring,then wait until Geoff starts
Singing(on every block, a reminder...)
and play the rest kind of fast

G -----------------------------------|
D -----------------------------------|
A ---------9-99999999---------999p10-|
D 9-9999---------------9-9999--------|

G ------------------------------------|
D ------------------------------------|
A ---------5-55555555---------55555p4-|
D 5-5555---------------5-5555---------|
Play all that twice

[ Tab from: http://www.guitartabs.cc/tabs/t/thursday/tomorrow_ill_be_you_btab.html ]
G -------------------------------------------------------|
D -------------------------------------------------------|
A -------------------------------------------------------|
D 4-44444-44444-44447-77777-77777-77775-55555-55555-5555-|

G -------------------|
D -------------------|
A -------------------|
D 5-55555-55555-5555-|

Chorus:

G -------------------------------------|
D -------------------------------------|
A ----9--------------------------------|
D 9999-997777777755555-5555555-55------|     x4

Then

G ------------------------------------------------|
D ------------------------------------------------|
A ------------------------------------------------|
D 9-9-9-9-9-94-4-4-4-4-45-5-5-5-5-5-5-5-5-5-5-5---|  x2

Then

G ----
D ----
A ----
D 5~~~

Come in on 2:12

G ---
D ---
A ---
D 5~~

G -------|
D -------|
A -------|
D 9~0~5~~   x4

Verse x2

Then

G ----------------------|
D ----------------------|
A ----------------------|
D 9999-4444-5555-5555---|  x2

Solo 1st part:

G --4------|
D -4-------|
A 2--------|
D ----5~---|  x3

2nd part of solo

G --4-----------|
D -4------------|
A 2-------------|
D ----5s101s5---|  x1

Back to first part of solo x4

Then (bass comes in at 3:30)

G --------------------------------|
D --------------------------------|
A --------------------------------|
D 99999999777777775555555555555555  x2

Chorus x2

Outro:

G ----
D ----
A ----
D 9~~~
Comments