Thursday - This Song Brought To You By A Falling Bomb Chords & Tabs

 

This Song Brought To You By A Falling Bomb Chords & Tabs

Thursday Chords & Tabs

Version: 1 Type: Bass Tab 0 ratings
1 star 2 stars 3 stars 4 stars 5 stars
comments

This Song Brought To You By A Falling Bomb Bass Tab

Gb||-------------9----------|-------------9----------|-------------9----------|
Db||-------10---------10----|-------7----------7-----|-------9----------9-----|
Ab||---10-------------------|--0---------------------|--7---------------------|
Eb||------------------------|------------------------|------------------------|
                          
Gb||--9----------9----------||
Db||-------9----------9-----||
Ab||------------------------||
Eb||------------------------||

[ Tab from: http://www.guitartabs.cc/tabs/t/thursday/this_song_brought_to_you_by_a_falling_bomb_btab.html ]
Bridge section:
Gb||-------------9----------|-------------9----------|-------------9----------|
Db||-------10---------10----|-------7----------7-----|-------9----------9-----|
Ab||---10-------------------|--0---------------------|--7---------------------|
Eb||------------------------|------------------------|------------------------|
                          
                    1st time                 2nd Time
Gb||-------------9----------|-------------9----------|
Db||-------7----------7-----|-------9----------9-----| 
Ab||--5---------------------|------------------------|
Eb||------------------------|--7---------------------|

                    1st time                 2nd Time
Gb||-------------9----------|-------------9----------|
Db||-------7----------7-----|-------9----------9-----| 
Ab||--5---------------------|------------------------|
Eb||------------------------|--7---------------------|
Comments