Thursday - This Side Of Brightness Chords & Tabs

 

This Side Of Brightness Chords & Tabs

Thursday Chords & Tabs

Version: 1 Type: Tab 0 ratings
1 star 2 stars 3 stars 4 stars 5 stars
comments

This Side Of Brightness Tab

Drop D Tuning, I took a long time listening to the song making sure that this
was correct, and I hope you all find it satisfactory.  This is my first tab.
    
Guitar 1
* CHORDS** have 4 beats in beats inbetween them. Listen to song for exact time.
E|3--------3-------3---------------3-------------------3--------3---------3-------------|
B|1--------0-------1---3-----------0-------8-----8-----1--------0---------1-------------|
G|2--------0-------2------0--------0----------7--------2--------0---------2-------------|
D|3--------2-------3---------2-----2-------------------3--------2---------3-------------|
A|---------3-----------------------3----------------------------3-----------------------|
D|--------------------------------------------------------------------------------------|
[ Tab from: http://www.guitartabs.cc/tabs/t/thursday/this_side_of_brightness_tab.html ]
Guitar 2*  Rythem is a little sketchy so go to song for exact rythem.
E|0-02-0--00-02-0----00-02-0----00-02-0----00-02-0----00-02-0----00-02-0----------------|
B|1-11-1--11-11-1----00-00-0----11-11-1----00-00-0----11-11-1----00-00-0----1-1-1-11111-|
G|0-00-0--00-00-0-x3-00-00-0-x4-00-00-0-x4-00-00-0-x4-00-00-0-x4-00-00-0-4x-0-0-0-00000-|
D|2-22-2--22-22-2----22-22-2----22-22-2----22-22-2----22-22-2----22-22-2----2-2-2-22224-|
A|--------------------------------------------------------------------------3-3-3-33333-|
D|--------------------------------------------------------------------------------------|

Chorus Repeat 4 Times
E|--------------------------------------------------------------------------------------|
B|-33--333------------------------------------------------------------------------------|
G|-00--000------------------------------------------------------------------------------|
D|-22--222-x3----222-----22-2-----------------------------------------------------------|
A|-33--333-------222-x3--22-2-----------------------------------------------------------|
D|---------------222-----22-2-----------------------------------------------------------|
 
*Tab done by COREY (WHAT RICHARD!!  lol :D)
Comments