Thursday - Steps Ascending Chords & Tabs

 

Steps Ascending Chords & Tabs

Thursday Chords & Tabs

Version: 1 Type: Bass Tab 0 ratings
1 star 2 stars 3 stars 4 stars 5 stars
comments

Steps Ascending Bass Tab

   
riff one
G|-------------------------------------------------------------------|
D|-------------------------------------------------------------------|
A|-8-8-8-8---8-8----8-8-8-8---8-8------------------------------------|
D|----------------------------------7-7-7-7---7-7----7-7-7-7---7-7---|

G|-------------------------------------------------------------------|
D|-------------------------------------------------------------------|
A|-8-8-8-8---8-8-8--------------------------------------------------|
D|------------------3-3-3-3-3-0-3-5-7-7-7-7---7-7----7-7-7-7---7-7---|




  verse one
G|-----------------------------------------------------------------|
D|-----------------------------------------------------------------|
A|-----------------------------------------------------------------|
D|-7----------------7-------------5----------------5--5------------|

G|-----------------------------------------------------------------|
D|-----------------------------------------------------------------|
A|-----------------------------------------------------------------|
D|-/12------------------0---------9----------------5--5------------|

G|-----------------------------------------------------------------|
D|-----------------------------------------------------------------|
A|-----------------------------------------------------------------|
D|-7----------------7-------------5----------------5--5------------|

G|----------------------------------------------------------------|
D|----------------------------------------------------------------|
A|----------------------------------------------------------------|
D|-/12------------------0---------9---9---9---9---5---5---5---5---|




  riff one
G|-------------------------------------------------------------------|
D|-------------------------------------------------------------------|
A|-8-8-8-8---8-8----8-8-8-8---8-8------------------------------------|
D|----------------------------------7-7-7-7---7-7----7-7-7-7---7-7---|

G|-------------------------------------------------------------------|
D|-------------------------------------------------------------------|
A|-8-8-8-8---8-8-8--------------------------------------------------|
D|------------------3-3-3-3-3-0-3-5-7-7-7-7---7-7----7-7-7-7---7-7---|




  chorus
G|-----------------------------------------------------------------|
D|-----------------------------------------------------------------|
A|-----------------------------------------------------------------|
D|-0-0-0-0-0-0-0-0-0-0-0-0-0-0-0-0-7-7-7-7-7-7-7-7-7-7-7-7-7-7-7-7-|

G|---------------------------------------------------------------------|
D|---------------------------------------------------------------------|
A|---------------------------------------------------------------------|
D|-0-0-0-0-0-0-0-0-0-0-0-0-0-0-0-0-8-8-8-8-8-8-8-8-7-7-7-7-10-10-10-10-|

G|---------------------------------------------------------|
D|---------------------------------------------------------|
A|---------------------------------------------------------|
D|-0-0-0---------0-0-0---------0-0-0---------0-0-0---------|

G|------------------------------------------|
D|------------------------------------------|
A|------------------------------------------|
D|-9---9-9-9-9/10---10-10-10-10-10-10-10-10-|

G|---------------------------------------------------------|
D|---------------------------------------------------------|
A|---------------------------------------------------------|
D|-0-0-0---------0-0-0---------0-0-0---------0-0-0---------|

G|------------------------|
D|------------------------|
A|------------------------|
D|-2---2-2-2-2-3---3-3----|




 verse two
G|-----------------------------------------------------------------|
D|-----------------------------------------------------------------|
A|-----------------------------------------------------------------|
D|-7----------------7-------------5----------------5--5------------|

G|-----------------------------------------------------------------|
D|-----------------------------------------------------------------|
A|-----------------------------------------------------------------|
D|-/12------------------0---------9----------------5--5------------|

G|-----------------------------------------------------------------|
D|-----------------------------------------------------------------|
A|-----------------------------------------------------------------|
D|-7----------------7-------------5----------------5--5------------|

G|----------------------------------------------------------------|
D|----------------------------------------------------------------|
A|----------------------------------------------------------------|
D|-/12------------------0---------9----------------5--5-----------|

G|------9-----------------------------7-------------------|
D|-5/7-----7------7--7---7-7---5--5---5------5--5---5-5---|
A|--------------------------------------------------------|
D|--------------------------------------------------------|

G|--------5----------------------------------4--5--4----2-|
D|-3--3---3---------------------------2--2------------2---|
A|--------------------------------------------------------|
D|--------------------------------------------------------|
[ Tab from: http://www.guitartabs.cc/tabs/t/thursday/steps_ascending_btab.html ]
G|------9-----------------------------7-------------------|
D|-5/7-----7------7--7---7-7---5--5---5------5--5---5-5---|
A|--------------------------------------------------------|
D|--------------------------------------------------------|

G|--------5------------------------------------------------------------|
D|-3--3---3---------------------------2---2-2-2-2-2-2------------------|
A|----------------------------------------------------2---2-2-2-2-2-2/-|
D|---------------------------------------------------------------------|




  riff one
G|-------------------------------------------------------------------|
D|-------------------------------------------------------------------|
A|-8-8-8-8---8-8----8-8-8-8---8-8------------------------------------|
D|----------------------------------7-7-7-7---7-7----7-7-7-7---7-7---|

G|-------------------------------------------------------------------|
D|-------------------------------------------------------------------|
A|-8-8-8-8---8-8-8--------------------------------------------------|
D|------------------3-3-3-3-3-0-3-5-7-7-7-7---7-7----7-7-7-7---7-7---|




  chorus
G|-----------------------------------------------------------------|
D|-----------------------------------------------------------------|
A|-----------------------------------------------------------------|
D|-0-0-0-0-0-0-0-0-0-0-0-0-0-0-0-0-7-7-7-7-7-7-7-7-7-7-7-7-7-7-7-7-|

G|---------------------------------------------------------------------|
D|---------------------------------------------------------------------|
A|---------------------------------------------------------------------|
D|-0-0-0-0-0-0-0-0-0-0-0-0-0-0-0-0-8-8-8-8-8-8-8-8-7-7-7-7-10-10-10-10-|

G|---------------------------------------------------------|
D|---------------------------------------------------------|
A|---------------------------------------------------------|
D|-0-0-0---------0-0-0---------0-0-0---------0-0-0---------|

G|------------------------------------------|
D|------------------------------------------|
A|------------------------------------------|
D|-9---9-9-9-9/10---10-10-10-10-10-10-10-10-|

G|---------------------------------------------------------|
D|---------------------------------------------------------|
A|---------------------------------------------------------|
D|-0-0-0---------0-0-0---------0-0-0---------0-0-0---------|

G|------------------------|
D|------------------------|
A|------------------------|
D|-2---2-2-2-2-3----------|




  outro
G||-9-----9-----9-----9-----7-----7-----7-----7-|
D||-7--7--7--7--7--7--7-----5--5--5--5--5--5--5-|
A||----0-----0-----0-----0----------------------|
D||---------------------------------------------|

G|-4-----4-----4-----4-----5-----5-----5-----5--5/-||
D|-2--2--2--2--2--2--2--2--3--3--3--3--3--3--3--3/-||
A|-------------------------------------------------|| 
D|-------------------------------------------------||  

G||-9-----9-----9-----9-----7-----7-----7-----7-|
D||-7--7--7--7--7--7--7-----5--5--5--5--5--5--5-|
A||----0-----0-----0-----0----------------------|
D||---------------------------------------------|

G|-11-11-11-11-11-11-11-11-12--12--12--12--12--12--12--12-||
D|-9--9--9--9--9--9--9--9--10--10--10--10--10--10--10--10-||
A|--------------------------------------------------------|| 
D|--------------------------------------------------------||  

G||-9-----9-----9-----9-----7-----7-----7-----7-|
D||-7--7--7--7--7--7--7-----5--5--5--5--5--5--5-|
A||----------------------0----------------------|
D||---------------------------------------------|

G|-4-----4-----4-----4-----5--5--5--5--5--5--5--5/-||
D|-2--2--2--2--2--2--2--2--3--3--3--3--3--3--3--3/-||
A|-------------------------------------------------|| 
D|-------------------------------------------------||  

G||-------9--9--9------------7--7--7--7--7--7--7--7-|
D||-7--7-----------7--7--7---5--5--5--5--5--5--5--5-|
A||-------------------------------------------------|
D||-------------------------------------------------|

G|------------------------------------------------------------|
D|-7/9--9--9--------------------------------------------------|
A|------------9--9-----------10------10h12--10-----10--10--10-|
D|------------------9--9--9------10---------------------------|

G|-9--9--9--9--9--9--9--9--7--7--7--7--7--7--7--7-|
D|-7--7--7--7--7--7--7--7--5--5--5--5--5--5--5--5-|
A|------------------------------------------------|
D|------------------------------------------------|

G|-4--4--4--4--4--4--4--4--5--5--5--5--5--5--5--5/-||
D|-2--2--2--2--2--2--2--2--3--3--3--3--3--3--3--3/-||
A|-------------------------------------------------|| 
D|-------------------------------------------------||  

G|-9--9--9--9--9--9--9--9--7--7--7--7--7--7--7--7-|
D|-7--7--7--7--7--7--7--7--5--5--5--5--5--5--5--5-|
A|------------------------------------------------|
D|------------------------------------------------|

G|--------------------------------------------------------|
D|--------------------------------------------------------|
A|--------------------------------------------------------|
D|-9--9--9--9--9--9--9--9--10--10--10--10--10--10--10--10-|

G|-------------------------------------------------||
D|-------------------------------------------------||
A|-12----------------------------------------------||
D|-------------------------------------------------||
Comments