Thursday - Standing On The Edge Of Summer Chords & Tabs

 

Standing On The Edge Of Summer Chords & Tabs

Thursday Chords & Tabs

Version: 2 Type: Tab 0 ratings
1 star 2 stars 3 stars 4 stars 5 stars
comments

Standing On The Edge Of Summer Tab

--------------------------------------------------------------------------------
                   THURSDAY - STANDING ON THE EDGE OF SUMMER
--------------------------------------------------------------------------------

tabbed by: Randy Cornett
e-mail: thursday_calgone@hotmail.com

tuning: Dropped D

This is an incredible song of Full Collapse and nobody bothers to tab the whole
thing, so here is a complete tab to the song. It's not perfect, but it's more
than enough to help you out live:

Intro part 1
Guitar 1 (distortion)
e|---------------------------------------------------
B|---------------------------------------------------
G|--6-6-6-6-6--6-6-6-6-6----6-6-6-6-6--6-6-6-6-6-----
D|--4-4-4-4-4--4-4-4-4-4----4-4-4-4-4--4-4-4-4-4-----  X 2
A|--5-5-5-5-5--5-5-5-5-5----4-4-4-4-4--4-4-4-4-4-----
D|---------------------------------------------------

Guitar 2 (light distortion)
this part isn't perfect, but this is what I play
e|-----------------------------------------
B|-------------------------------7---------
G|--------6-------------------6-----6--4---
D|-----4-----4--4~---------4--------------- X 2
A|--5-------------------4------------------
D|-----------------------------------------

Intro part 2
Both guitars (full distortion)
e---------------------------------------------------------
B---------------------------------------------------------
G--------------------------------------------------------- X 2
D---------------------------------------------------------
A--0-0-0-0-0-0-x-0-0-0-0-0-0-x-4-4-4-4-4-4-x-4-4-4-4-4-4--
D--0-0-0-0-0-0-x-0-0-0-0-0-0-x-4-4-4-4-4-4-x-4-4-4-4-4-4--

verse
e|--0-0-0-0-0---------------0-0-0-0-0--------------
B|--3-3-3-3-3---7-7-7-7-7---3-3-3-3-3---7-7-7-7-7--
G|--2-2-2-2-2---6-6-6-6-6---2-2-2-2-2---6-6-6-6-6-- X 2
D|--0-0-0-0-0---4-4-4-4-4---0-0-0-0-0---4-4-4-4-4--
A|--0-0-0-0-0---4-4-4-4-4---0-0-0-0-0---4-4-4-4-4--
D|--------------4-4-4-4-4---------------4-4-4-4-4--
  "In this room, sitting by your side...."

Guitar 2 appregiates the chords above, kinda just messes with them a little bit.

than, Repeat Intro 1 than Intro 2, than you come to the chorus...
[ Tab from: http://www.guitartabs.cc/tabs/t/thursday/standing_on_the_edge_of_summer_tab_ver_2.html ]
Chorus
Guitar 1 (light distortion)
e|-------------------------------------------------------
B|-------------------------------------------------------
G|-------------------------------------------------------
D|--5-5-5-5-5--4-4-4-4-4--0-0-0-0-0-0-0-0-0-0-0-0-0-0----
A|--5-5-5-5-5--4-4-4-4-4--0-0-0-0-0-0-0-0-0-0-0-0-0-0----
D|--5-5-5-5-5--4-4-4-4-4--0-0-0-0-0-0-0-0-0-0-0-0-0-0----
  "In this house of cards..."

Guitar 2 (full distortion) played over Guitar 1
e|-------------------------------------------------------------------
B|-------------------------------------------------------------------
G|--------7-------------7------------11-11-11-11--------11-11-11-11--
D|------5---5---------4---4-----------x--x--x--x---------x--x--x--x--
A|----5-------5-----4----------x-x-x--9--9--9--9--x-x-x--9--9--9--9--
D|--5-------------4------------x-x-x--------------x-x-x--------------

before the verse...
e|-------------------
B|-------------------
G|-------6-------6~--
D|-------x-------x~--
A|-------4-------4~--
D|-0-0-0---0-0-0-----

For next verse, both guitars fool around with the chords in the verse by
appregiating and what not.

Than you repeat the chorus and do this little number...
Guitar 1 (distortion)
e--------------------------
B--------------------------
G--------------------------
D---5-5-5-5--4-4-4-4-------
A---5-5-5-5--4-4-4-4-------
D---5-5-5-5--4-4-4-4-------
 "....Broken hearts.."
Guitar 2 (clean)
plays this after the part above
e|-----------------------------------------
B|-----------------------------------------
G|----------------------6-6-6-6--6-6-6-6---
D|----------------------4-4-4-4--4-4-4-4---
A|----------------------5-5-5-5--5-5-5-5---
D|-----------------------------------------

Than this... (both guitars, distortion)
e---------------------------------------------------------
B---------------------------------------------------------
G--------------------------6-------6-------6-------7/9/6--
D--5-5-5-5--4-4-4-4--------x-------x-------x-------x/x/x--
A--5-5-5-5--4-4-4-4--------4-------4-------4-------5/7/4--
D--5-5-5-5--4-4-4-4--0-0-0---0-0-0---0-0-0---0-0-0--------
"pull your punches and urn with your.."

than end on this
e|-------------------------------------
B|-------------------------------------
G|--------6------11-------6-------11~--
D|--------x-------x-------x--------x~--
A|--------4-------9-------4--------9~--
D|--0-0-0---0-0-0---0-0-0----0-0-0-----
Comments