Thursday - Signals Over The Air Chords & Tabs

 

Signals Over The Air Chords & Tabs

Thursday Chords & Tabs

Version: 5 Type: Tab 0 ratings
1 star 2 stars 3 stars 4 stars 5 stars
comments

Signals Over The Air Tab

   
Thursday - Signals Over the air
-------------------------------------------------------------------------------
Tabbed by:Jared Flores thanks to Emilio for giving me the tab
Email:agomez6470@sbcglobal.net

Tuning:DADGBE
Guitar 1 Intro & Verse
e|--0--5--8-5----------------------------0----------------------------------
B|--0--0--0-0-8-5-6p5----5-----5-6p5-----0----0-----------------------------
G|--5--0--0---0-0-0---7--0--5--0-0----7----7--5--4--0-----------------------
D|--7--7--------------7-----7--7-7----7----7-----7--0-----------------------
A|--0--------------------------0-0------------------------------------------
E|--------------------------------------------------------------------------
Guitar 2 Somewhere between verse 
e|---0--0--0--0-12-12-12-12-12-10-10-10-10-10-101010-101010-----------------
B|--10-10-10-10-12-12-12-12-12-12-12-12-12-12-121212-121212-----------------
G|--------------------------------------------------------------------------
D|--------------------------------------------------------------------------
A|--------------------------------------------------------------------------
E|--------------------------------------------------------------------------
Guitar 2 second time
e|--0--0--0--0-12-12-12-13-12-12-12-12-121312-121312------------------------
B|-10-10-10-10-12-12-12-12-12-12-12-12-121212-121212------------------------
G|--------------------------------------------------------------------------
D|--------------------------------------------------------------------------
A|--------------------------------------------------------------------------
E|--------------------------------------------------------------------------
Guitar 1 Pre Chorus
e|-8p5----------------------------------------------------------------------
B|-0--8p5-------------------------------------------------------------------
G|-0--0---7p5-0-4/5-4/5-----------------------------------------------------
D|-7--7---7---0-7---7-------------------------------------------------------
A|-0--0---0-----------------------------------------------------------------
E|--------------------------------------------------------------------------
Guitar 2 Pre Chorus (not exact strumming but close enough)
e|-0--0-0-0-0-0-0-0-0-0-0--0-0-0-0-0-0-0-0-0-0-0--0-0-0-0-0--0-0-0-0---13---
B|-8/1010101010101010-8-8-121212121212121212-8-8-1313131313-17171717-17-----
G|--------------------------------------------------------------------------
D|--------------------------------------------------------------------------
A|--------------------------------------------------------------------------
E|--------------------------------------------------------------------------

e|-----15-15-15-------------------------------------------------------------
B|--17----17-17-------------------------------------------------------------
G|--------------------------------------------------------------------------
D|--------------------------------------------------------------------------
A|--------------------------------------------------------------------------
E|--------------------------------------------------------------------------
Chorus- Guitar 1 not correct strumming
e|--------------------------------------------------------------------------
B|--------------------------------------------------------------------------
G|-5-5-5-55555555555555555555555555555555555554444444-----------------------
D|-0-0-0-77777777777000777777777770003333333005555555-----------------------
A|-0-0-0-77777777777000777777777770003333333005555555-----------------------
E|-0-0-0-77777777777000777777777770003333333005555555-----------------------
Chorus Guitar 2 also not correct strumming but is easy to figure out
e|--------------------------------------------------------------------------
B|-5-5-5--5555555555555555555555555-----------------------------------------
G|-0-0-0--xxxxxxxxxxxxxxxxxxxxxxxxx-----44444-55555-77777-1414141414-17-16b-
D|-0-0-0--7777777777770077777777777-000-xxxxx-xxxxx-xxxxx--x-x-x-x-x--x--x--
A|-0-0-0--7777777777770077777777777-000-22222-33333-55555-1212121212-15-14b-
E|-0-0-0--7777777777770077777777777-000-------------------------------------
[ Tab from: http://www.guitartabs.cc/tabs/t/thursday/signals_over_the_air_tab_ver_5.html ]
e|--------------------------------------------------------------------------
B|-5 5 5 -555555555555------------------------------------------------------
G|-0-0-0--xxxxxxxxxxxx--7/14141414-1616161616-17171717-19191919-21-19-17-16-
D|-0-0-0--777777777777--x--x-x-x-x--x-x-x-x-x--x-x-x-x--x-x-x-x--x--x-x--x--
A|-0-0-0--777777777777--5/12121212-1414141414-15151515-17171717-19-17-15-14-
E|-0-0-0--777777777777------------------------------------------------------
repeat chorus& verse & then play this as Guitar1 play as many times
e|--------------------------------------------------------------------------
B|---------------20p0--17p0-------------------------------------------------
G|-----17----16--------------17p0-16p0--16h17-16----------------------------
D|--19----19--------------------------------------19------------------------
A|--------------------------------------------------------------------------
E|--------------------------------------------------------------------------
Bridge Guitar1 play twice                                                            
e|--------------------------------------------------------------------------
B|--------------------------------------------------------------------------
G|--5-2-2-------------------------------------------------------------------
D|--7-3-5-------------------------------------------------------------------
A|--7-3-5-------------------------------------------------------------------
E|--7-3-5-------------------------------------------------------------------
Bridge Guitar 2
e|--------------------------------------------------------------------------
B|--5-1-0-------------------------------------------------------------------
G|--x-0-0-0000000000000000--000000--000--0000-------------------------------
D|--7-3-5-2222222222222222/7777777\5555\33332-------------------------------
A|--7-3-5-------------------------------------------------------------------
E|--7-3-5-------------------------------------------------------------------
Guitar 1 repeat
e|----------0---------------------------------------------------------------
B|-----0----0---------------------------------------------------------------
G|-----5----2-----2---------------------------------------------------------
D|--7--7--3----5--5---------------------------------------------------------
A|--7--7--3----5--5---------------------------------------------------------
E|--7--7--3----5--5---------------------------------------------------------
Guitar 2 repeat
e|--------------------------------------------------------------------------
B|-0-0-0-0-0-0-0-5-5-5-0-0-0-0-0--------------------------------------------
G|-2-2-2-4-4-4-0-0-0-0-4-4-4-4-0--------------------------------------------
D|--------------------------------------------------------------------------
A|--------------------------------------------------------------------------
E|--------------------------------------------------------------------------
Guitar 1 
e|------8p0-5p0------------------------------8p0-5p0------------------------
B|--5p0---------8p0-6\5p0----------------5p0---------8p0--6\5p0-------------
G|-------------------------7-7\5\4\3p0--------------------------7-7---------
D|--------------------------------------------------------------------------
A|--------------------------------------------------------------------------
E|--------------------------------------------------------------------------
Guitar 2
e|---------------------------------0-0-0-0-0-0-0----------------------------
B|-0-0-0-0-0-0-0-0-0-5-5-5-0-0-0-0-3-3-3-3-3-3-3----12-12-12-12-------------
G|-2-2-2-4-4-4-0-0-0-0-0-0-4-4-4-4-5-5-5-5-5-5-5/12-12-12-12-12-------------
D|--------------------------------------------------------------------------
A|--------------------------------------------------------------------------
E|--------------------------------------------------------------------------
Guitar 1 solo part play 3 times
e|--------------17----------------15-13-12----------------------------------
B|---------------x--------------------------15-13-12------------------------
G|--------------14----------------------------------------------------------
D|-7-7-7-7-7-7------2-2-2-2-2-2---------------------------------------------
A|-7-7-7-7-7-7------2-2-2-2-2-2---------------------------------------------
E|-7-7-7-7-7-7------2-2-2-2-2-2---------------------------------------------
Guitar 2 play 3 times
e|--------------------------------------------------------------------------
B|-------------10-----------------------------------------------------------
G|--------------x---------------9/10-9\7-9\7--------------------------------
D|-7-7-7-7-7-7--7--2-2-2-2-2-2--x----x-x-x-x--------------------------------
A|-7-7-7-7-7-7-----2-2-2-2-2-2--7/-8-7\5-7\5--------------------------------
E|-7-7-7-7-7-7-----2-2-2-2-2-2----------------------------------------------
 
Just play the chorus again and that thing and thats it i swear that sucked
| /  slide up
| \  slide down
| h  hammer-on
| p  pull-off
| b  bend
| +  harmonic
| x  Mute note
===============================================================================
Comments