Thursday - Signals Over The Air Chords & Tabs

 

Signals Over The Air Chords & Tabs

Thursday Chords & Tabs

Version: 3 Type: Tab 0 ratings
1 star 2 stars 3 stars 4 stars 5 stars
comments

Signals Over The Air Tab

-----------------------------------------------------------------------------
                       THURSDAY - SIGNALS OVER THE AIR
-----------------------------------------------------------------------------

tabbed by: stellar_legs
e-mail: uncle_stellar@hotmail.com

tuning: Dropped D

Here's my take at the incredible new Thursday song. I bought the album yesterday
and my jaw is still on the floor. This song goes through basic Thursday licks,
like a shit load of Octaves, and clean single notes. I tabbed this out for one
guitar, becaus ethe second one is a little murky, but this is more then enough to
help you cover it live.

Intro/Verse
e-----------8p7-----------------------------------------|
B------8~-------8---8--------------8~----6-5-3-5-3------|
G--5---5~---------9---9--7/9---5---5~--------------5----|
D--7---7~----------------------7---7~-------------------|
A-------------------------------------------------------|
D-------------------------------------------------------|

Pre Chorus (unclear on this)
e---8--8--8--8--8--8--10-10-10-10-10-10--12-12-12-12-12--15-15-15-15-15--|
B--10-10-10-10-10-10--12-12-12-12-12-12--13-13-13-13-13--17-17-17-17-17--|
G------------------------------------------------------------------------|
D------------------------------------------------------------------------|
A------------------------------------------------------------------------|
D------------------------------------------------------------------------|

Chorus (distortion)
e---------------------------------------------------------------------------|
B---------------------------------------------------------------------------|
G-------------------------------4-5-5/7-7-7----14-14---17-17-16/17/16/17-16-|
D--9-9-9-9-9-9-x-x-9-9-9-9-9-9--x-x-x/x-x-x-----x--x----x--x--x/-x/-x/-x--x-|
A--7-7-7-7-7-7-x-x-7-7-7-7-7-7--2-3-3/5-5-5----12-12---15-15-14/15/14/15-14-|
D--7-7-7-7-7-7-x-x-7-7-7-7-7-7----------------------------------------------|
[ Tab from: http://www.guitartabs.cc/tabs/t/thursday/signals_over_the_air_tab_ver_3.html ]
Chorus Part II                                (trem. picking..............
e-------------------------------------------------------------------------|
B-------------------------------------------------------------------------|
G-------------------14-14-14-14-14---16/17-17--19191919191919--2121212121-|
D--9-9-9-9-9-9-x-x---x--x--x--x--x----x/-x--x---x-x-x-x-x-x-x---x-x-x-x-x-|
A--7-7-7-7-7-7-x-x--12-12-12-12-12---14/15-15--17171717171717--1919191919-|
D--7-7-7-7-7-7-x-x--------------------------------------------------------|

....trem picking)
e-----------------------------------------|
B-----------------------------------------|
G--1919191919--171717--16-17-16-17-16~----|
D---x-x-x-x-x---x-x-x---x--x--x--x--x~----|
A--1717171717--151515--14-15-14-15-14~----|
D-----------------------------------------|

Repeat Verse
Repeat Chorus...

e-----------15--13--12----12h13-12----------15--13--12----12h13-12--------|
B--------13------------13----------------13------------12-----------------|
G--14-14-----------------------------14-----------------------------14~---|
D-------------------------------------------------------------------------|
A-------------------------------------------------------------------------|
D-------------------------------------------------------------------------|

Bridge (let each note ring)
e----------------------------------------|
B----------------------------------------|
G----------------------------------------|
D--7~----5---5----7~----5---5----7~------|
A--7~----3---5----7~----3---5----7~------|
D--7~----3---5----7~----3---5----7~------|
 Missing some crucial Guitar 2 parts, but this is the basic stuff of the Bridge.

(Distortion)
e---------------------------------15-13-12------------|
B-----------1010101010---------------------15-13-12---|
G-----------------------------------------------------|
D--7-7-7-7--------------2-2-2-2-----------------------|
A--7-7-7-7--------------2-2-2-2-----------------------|
D--7-7-7-7--------------2-2-2-2-----------------------|
Repeat until Chorus, then you should be fine after that.

Fin.
Comments