Thursday - Porcelain Chords & Tabs

 

Porcelain Chords & Tabs

Thursday Chords & Tabs

Version: 1 Type: Bass Tab 0 ratings
1 star 2 stars 3 stars 4 stars 5 stars
comments

Porcelain Bass Tab

   
G|-----------------------|
D|-----------------------|
A|-----------------------| x4
D|-xx0~--------xx--------|

G|--------------------------------------------|
D|--------------------------------------------|
A|-----5555----5555---------------------------| x4
D|-0000----0000-----77777777-1010101010101010-|
                             ^^^^^^^^^^^^^^^^

G|---------------------|
D|---------------------|
A|---------------------| x4
D|-77777777-88888888-0-|

G|----------------------------------------------------------------|
D|----------------------------------------------------------------|
A|----------------------------------------------------------------| x2
D|-00000000-00000000-88888888-88888888-77777777-77777777-88888888-| 

G|--------------------------------------------|
D|--------------------------------------------|
A|-----5555----5555---------------------------| x4
D|-0000----0000-----77777777-1010101010101010-|
                             ^^^^^^^^^^^^^^^^
[ Tab from: http://www.guitartabs.cc/tabs/t/thursday/porcelain_btab.html ]
G|----------------------------------------------------------------|
D|----------------------------------------------------------------|
A|----------------------------------------------------------------| x3
D|-00000000-00000000-88888888-88888888-77777777-77777777-88888888-| 

G|----|
D|----|
A|----|
D|-0~-|

Come in on the fourth “The silent line of sky-lit eyes show."
G|-----------------------------------|
D|-----------------------------------|
A|-------------------5-555-555-55757-| x3
D|-8-888-888-8810810-----------------|
               ^^ ^^

G|-------------------------------------|
D|-------------------------------------|
A|-------------------55555555-55555555-| 
D|-8-888-888-8810810-------------------|
               ^^ ^^

G|--------------------------------------------|
D|--------------------------------------------|
A|-----5555----5555---------------------------| x4
D|-0000----0000-----77777777-1010101010101010-|
                             ^^^^^^^^^^^^^^^^

G|------------------------------------|
D|------------------------------------|
A|-----5555----5555-------------------| x4
D|-0000----0000-----77777777-77777777-|

G|-----------------|
D|-----------------|
A|-----------------|
D|-0-0-0-0-0-0-0-0-|
Comments