Thursday - In Transmission Chords & Tabs

 

In Transmission Chords & Tabs

Thursday Chords & Tabs

Version: 1 Type: Bass Tab 0 ratings
1 star 2 stars 3 stars 4 stars 5 stars
comments

In Transmission Bass Tab

   
=slide down
/=slide up
^^=double digit

G|-------------|
D|-------------|
A|-------12----|
E|-6~----------|

G|---------------------------------|
D|-----------------------------7---|
A|-------------7--------8-----7-7--| x2
E|-66666665~--5-5-666666-5~--5---5-|

G|------------------------------------|
D|------------------------------------|
A|-------------7--------8-----12------|
E|-66666665~--5-5-666666-5-/12--12----|
                            ^^^^^^

G|---------------------------------|
D|-----------------------------7---|
A|-------------7--------8-----7-7--| x2
E|-66666665~--5-5-666666-5~--5---5-|

G|-------------------------------------|
D|-------------------------------------|
A|-----------------------------8--6--8-|
E|-22222222-22222222-66666666-6--------|

G|----------------------------------------------|
D|----------------------------------------------|
A|-----------------------------------------20---|
E|-22222222-22222222-66666666-/181818181818--18-|
                               ^^^^^^^^^^^^^^^^

G|-------------------------------------|
D|-------------------------------------|
A|-----------4-5-4-5-----------8-6-8-6-|
E|-22222222-2-2-2-2--66666666-6-6-6-6--|
[ Tab from: http://www.guitartabs.cc/tabs/t/thursday/in_transmission_btab.html ]
G|-----------------------------------------------------|
D|-----------------------------------------------------|
A|-------------------------------------9~--------------|
E|-22222222-22222222-66666666-66666666-----------6~----|

G|-------------------------------------|
D|-------------------------------------|
A|-----------4-2-4-2-----------8-6-8-6-|
E|-22222222-2-2-2-2--66666666-6-6-6-6--|

G|-------------------------------------|
D|-------------------------------------|
A|-----------4-2-4-2-------------------| x2
E|-22222222-2-2-2-2--66----66----------|

G|-------------------------------------|
D|-------------------------------------|
A|-----------4-2-4-2-----------8-6-8-6-| x3
E|-22222222-2-2-2-2--66666666-6-6-6-6--|

G|----------------------------------------|
D|----------------------------------------|
A|----------------4-2--------------20-----|
E|-222222222-22222-2--6666/18-18-18--1818-|
                           ^^ ^^ ^^^^^^^^

G|-------------------------------------|
D|-------------------------------------|
A|-----------4-2-4-2-----------8-6-8-6-|
E|-22222222-2-2-2-2--66666666-6-6-6-6--|

G|--------------------------------------|
D|--------------------------------------|
A|--------------------------------------| x2
E|-111111111-11111111-00000000-22222222-|

G|-------------|
D|-------------|
A|-------------|
E|-22----22----|
Play Until End
Comments