Thursday - How Long Is The Night Chords & Tabs

 

How Long Is The Night Chords & Tabs

Thursday Chords & Tabs

Version: 1 Type: Bass Tab 0 ratings
1 star 2 stars 3 stars 4 stars 5 stars
comments

How Long Is The Night Bass Tab

Turn The E String into a D

notes : '>' means 8 times
        '~' means let it ring

1st Verse (play it at 2:45 again)
G:-----------------------------------------------|
D:-----------------------------------------------|
A:-0>>---------5>>3>>2>>0>>----------------------|
D:----5>>3>>2>>------------5>>3>>2-2-2-2-2-2-2-2-|

Chorus
G:-----------------|X2
D:-----------------|X2
A:------------3>---|X2
D:-0>>3>>0>>2>-----|X2

2nd Verse (listen to the song for the timing)
G:---------------------------------------------------------------------------------------------|
D:---------------------------------------------------------------------------------------------|
A:----------------------5~---5/7-3~--3/5-2~--0~--00-0-0/2-----------------------------------55-|
D:------5/7-3~---2~--0~----------------------------------5~-55-5-5/7-3~--33-3~--2~--00-0-0~----|
[ Tab from: http://www.guitartabs.cc/tabs/t/thursday/how_long_is_the_night_btab.html ]
G:-------------------------------------------------------------------|
D:------------------------------2------------------------------------|
A:-5/7-3~--33-3-3/5-2~--22-2~--0--0--0/2----------------------00/7>>-|
D:--------------------------------------5~-55-5-5/7-3~--33-3~--------|

Instrumental Part
G:------------------------|X3|--------------------------------|
D:------------------------|X3|--------------------------------|
A:------------------------|X3|--------------------------------|
D:-00077700077077991010>>-|X3|-00077700077077990007-70007-700-|
(note : these are 10's )

'I will never sleep again' part
G:-----------------------------------|X4
D:-----------------------------------|X4
A:-0000--0000--00--------------------|X4
D:------------------3333--3333--33---|X4

The last Verse
G:---------------------------------------------------------------------|
D:-3~-----2~-----------5--------------------3-3~---3-3~---2-2~---2-2~--|
A:---------------3~--3----3~---8/0---0~--------------------------------|
D:---------------------------------3-----------------------------------|

Outro
G:--------------------------------------------------------|
D:--------2>>>>3>>>>2>>>>---------------------------------|
A:-7/3>>>>---------------3>>>>0>>>>----------3>>>>0>>>>---|
D:---------------------------------3>>>>2>>>>----------3~-|
Comments