Thursday - For The Workforce Drowning Chords & Tabs

 

For The Workforce Drowning Chords & Tabs

Thursday Chords & Tabs

Version: 1 Type: Tab 0 ratings
1 star 2 stars 3 stars 4 stars 5 stars
comments

For The Workforce Drowning Tab

   
-----------------------------------------------------------------------------
                   THURSDAY - FOR THE WORKFORCE, DROWNING
-----------------------------------------------------------------------------

tabbed by: stellar_legs
e-mail: uncle_stellar@hotmail.com
tuning: Dropped D


Intro
e---------------------------------------------------------------------------|
B---------------------------------------------------------------------------|
G--------------------------------------7-7-7---7-7-7-7---7-7-7---7-7-7-7----|
D--0-0-0---0-0-0-0---0-0-0---0-0-0-0---x-x-x---x-x-x-x---x-x-x---x-x-x-x--0~|
A--0-0-0---0-0-0-0---0-0-0---0-0-0-0---5-5-5---5-5-5-5---5-5-5---5-5-5-5--0~|
D--0-0-0---0-0-0-0---0-0-0---0-0-0-0---0-0-0---0-0-0-0---0-0-0---0-0-0-0--0~|

Verse
e------------------------------------12-12-12-12-12-12-12-12-12-12-12--|
B----------------------------10--10--10-10-10-10-10-10-10-10-10-10-10--|
G--7-7-7-7-7-7-7-7-7-7--------8---9---9--9--9--9--9--9--9--9--9--9--9--|
D--x-x-x-x-x-x-x-x-x-x--------8---8---8--8--8--8--8--8--8--8--8--8--8--|
A--5-5-5-5-5-5-5-5-5-5--------8---8---8--8--8--8--8--8--8--8--8--8--8--|
D--0-0-0-0-0-0-0-0-0-0--------8---8---8--8--8--8--8--8--8--8--8--8--8--|
  "Falling from the topfloor your lungs fill like parachutes."
Repeat until chorus.

Chorus
e---------------------------------------------------------------------------|
B---------------------------------------------------------------------------|
G-------------------------------------10-10/9-9-9/10-10/9/15-15-15-14-14-14-|
D--------------------------------------x--x/x-x-x/-x--x/x--x--x--x--x--x--x-|
A--0-0-0-0---0-0-0---0-0-0-0---0-0-0---8--8/7-7-7/-8--8/7/13-13-13-12-12-12-|
D--0-0-0-0---0-0-0---0-0-0-0---0-0-0----------------------------------------|
           "Please take these hands, throw them in the river..."


e----------------------------------------------------12-12-12-12-12-12-12--|
B-----13^---13-----------------13^-----17-15---10-10-10-10-10-10-10-10-10--|
G---------------15-14---------------------------8--9--9--9--9--9--9--9--9--|
D--12----12-----------------12----12------------8--8--8--8--8--8--8--8--8--|
A-----------------------------------------------8--8--8--8--8--8--8--8--8--|
D-----------------------------------------------8--8--8--8--8--8--8--8--8--|
  "Nine to Five!...........Nine to Five!, and we're up to ouyr necks."

e---------------------------------------------------------------------------|
B---------------------------------------------------------------------------|
G--15151515151515-141414141414----17-17-17---21-21-21-21--19-19---15--17--19|
D---x-x-x-x-x-x-x--x-x-x-x-x-x-----x--x--x----x--x--x--x---x--x---15--17--19|
A--13131313131313-121212121212----15-15-15---19-19-19-19--17-17--(13)(15)(17)
D---------------------------------------------------------------------------|

Repeat Chorus

e---------------------------------------------------------------------|
B---------------------------------------------------------------------|
G---------------------------------------------------------------------|
D--0--0-0--0-0-0-0-0-0-0-0-0---0-x-0-x-0-x-0-x-0-x-0---0-0-0-0-0-0----|
A--0--0-0--0-0-0-0-0-0-0-0-0---0-x-0-x-0-x-0-x-0-x-0---0-0-0-0-0-0----|
D--0--0-0--0-0-0-0-0-0-0-0-0---0-x-0-x-0-x-0-x-0-x-0---0-0-0-0-0-0----|
                                 p.m.  p.m.  p.m.              
"just keep making copies of copies of copies...."

[ Tab from: http://www.guitartabs.cc/tabs/t/thursday/for_the_workforce_drowning_tab.html ]
Breakdown (Clean)
e---------------------------------------------------------------------------|
B--13/11-11-10-10h11h10-10--13/11-11-10-10h11h10-13--13/11-11-10-10h11p10-10|
G---------------------------------------------------------------------------|
D---------------------------------------------------------------------------|
A---------------------------------------------------------------------------|
D---------------------------------------------------------------------------|
  "That the ink runs to our fingertips and...."
e----------------12-12-12-12--10-10-10-10-10-10-8-8-8-8-8-8-6-6-6-6-6-6-6-|
B--13/11-11-10---12-12-12-12--10-10-10-10-10-10-8-8-8-8-8-8-6-6-6-6-6-6-6-|
G-------------------------------------------------------------------------|
D-------------------------------------------------------------------------|
A-------------------------------------------------------------------------|
D-------------------------------------------------------------------------|
                              "Last night my teeth fell out like ivory..."

e--5-5-5-5/6-6-------------------------------------------------------------|
B--5-5-5-5/6-6---10-10-10-10-10-10-10-8-8-8-8-8-8-8-6-6-6-6-6-6-6-5-5-5-5--|
G--------------------------------------------------------------------------|
D--------------------------------------------------------------------------|
A--------------------------------------------------------------------------|
D--------------------------------------------------------------------------|

(distortion)
e-------------------------------------------------------|
B-11-11-11-11----10-10-10-10----------------------------|
G--8--8--8--8--x--8--8--8--8----------------------------|
D--8--8--8--8--x--8--8--8--8---0--0--10-10-10-10-10-10--|
A--8--8--8--8--x--8--8--8--8---0--0--10-10-10-10-10-10--|
D--8--8--8--8--x--8--8--8--8---0--0--10-10-10-10-10-10--|
             "Save our ship........the anchor is part of the desk."

e------------------------------------------------------------------------|
B------------------------------------------------------------------------|
G--12/14-14-14-14--12-12/14-14-14-14--12--10-10-10--9-9--10-10-10--9-9---|
D---x/-x--x--x--x---x--x/-x--x--x--x---x---x--x--x--x-x---x--x--x--x-x---|
A--10/12-12-12-12--10-10/12-12-12-12--10---8--8--8--7-7---8--8--8--7-7---|
D------------------------------------------------------------------------|
         "Computers spark like flares....."

e-----------------------------------------------------------------|
B--13-13-13-13-13-13----17-17-17--18-17-17-17----13-13-13-13-13---|
G--10-10-10-10-10-10----15-15-15--15-15-15-15----10-10-10-10-10---|
D--10-10-10-10-10-10----15-15-15--15-15-15-15----10-10-10-10-10---|
A--10-10-10-10-10-10-----------------------------10-10-10-10-10---|
D-----------------------------------------------------------------|
 "They don't touch me, touch me, please someone, teach me how to swim."

e
B---------------------------------------------------------------------------|
G-------------------------------------7-7-7-7-7-7--9-9-9-9-9-9-10-10-10-10--|
D--0-0-0--0--0-0-0---0-0-0--0--0-0-0--x-x-x-x-x-x--x-x-x-x-x-x--x--x--x--x--|
A--0-0-0--0--0-0-0---0-0-0--0--0-0-0--5-5-5-5-5-5--7-7-7-7-7-7--8--8--8--8--|
D--0-0-0--0--0-0-0---0-0-0--0--0-0-0--0-0-0-0-0-0--0-0-0-0-0-0--0--0--0--0--|
Don't let me drown........."

e----------|
B----------|
G----------|
D--0-0-0~--|
A--0-0-0~--|
D--0-0-0~--|

Fin.
Comments