Thursday - Division St Chords & Tabs

 

Division St Chords & Tabs

Thursday Chords & Tabs

Version: 2 Type: Tab 0 ratings
1 star 2 stars 3 stars 4 stars 5 stars
comments

Division St Tab

   
Division St. -by- Thursday
Guitar 1 - left speaker
Guitar 2 - right speaker

Tuning : OPEN D MINOR TUNING (low to high) D-A-D-F-A-D

Guitar 1 - Left Speaker

Intro

d---------------|
a---------------|
f---------------|
d---------------|
a---------------|
D-0-0-0-0-0-0---|

first verse - strum fast and clean

d-----------------------------------------|
a-----------------------------------------|
f-44444-44444-5555-4444-77777777----------| (x2)
d-00000-00000-0000-0000-00000000-777777---|
a-55555-00000-0000-0000-88888888-777777---|
D-----------------------------------------|

next riff "lights out on division st."

d----------------------------------------------------|
a--0--0--0--0--0--0--0--0--0--0--0--0--0--0--0--0----|
f-9--9--9--9--7--7--7--7--5--5--5--5--4--4--4--4-----|
d----------------------------------------------------|
a----------------------------------------------------|
D----------------------------------------------------|

Pre Chorus - "the night is pouring down"

d---------------------------------|
a---------------------------------|
f-77777777-7~~~777777----12bubd---|
d-88888888-0~~~777777-8~~~--------|
a-88888888-0~~~777777-8~~~--------|
D-88888888-0~~~777777-8~~~--------|

Chorus "this is serious"

d-----------------------|
a-----------------------|
f-----------------------|
d-8-8-0-8-0-8-0-7777----|
a-8-8-0-8-0-8-0-7777----|
D-8-8-0-8-0-8-0-7777----|

repeat the verses

then theres this riff "hello, hello, is anybody there?"

d--------------------------------------|
a-5555555/777777/1010101010/8888888----|
f-xxxxxxx/xxxxxx/xxxxxxxxxx/xxxxxxx----
d-xxxxxxx/xxxxxx/xxxxxxxxxx/xxxxxxx----
a-5555555/777777/1010101010/8888888----|
D--------------------------------------|

Repeat verses and chorus

Coda part "if this is seriouse ill hide my heart in dark parades"

d------------------------7777777-101010101010-----|
a-7777777-10101010101010-0000000-0-0-0-0-0-0------|
f-0000000-0-0-0-0-0-0-0--xxxxxxx-x-x-x-x-x-x------|
d-xxxxxxx-x-x-x-x-x-x-x--7777777-101010101010-88--|
a-7777777-10101010101010----------------------88--|
D---------------------------------------------88--|

this part "i drew an X on your cities name"

*Harmonics & vol. wells*
---------12*---------------------------|
a-----------12*------------------------|
f--------------12*-12*-----------------|
d--88--------------------0000000-88----|
a--88--------------------0000000-88----|
D--88--------------------0000000-88----|

Next riff

d----------|
a-10/7/8---|
f-x-/x/x---
d-x-/x/x---
a-x-/x/x---
D-8-/8/8---

next quiet part "between the foot steps i hear crickets..."

d----------------------------------------------------|
a----5-5-5----7-7-7-7----10-10-10-10----8-8-8-8-8----|
f----------------------------------------------------|
d----------------------------------------------------|
a-5--------7----------10--------------8--------------|
D----------------------------------------------------|
[ Tab from: http://www.guitartabs.cc/tabs/t/thursday/division_st_tab_ver_2.html ]
d---------------------------------------------------------|
a----5-5-5----7-7-7-7----10-10-10-10----12-12-12-12-12----|
f---------------------------------------------------------|
d---------------------------------------------------------|
a-5--------7----------10--------------12------------------|
D---------------------------------------------------------|

d------------15-14----14------|
a-13~---13---------15----12---|
f-x~~---x---------------------|
d-x~~---x---------------------|
a-13~---13--------------------|
D-----------------------------|

the rest repeats end on

d-----
a-----
f-----
d-0---
a-0---
D-0---

Guitar 2 - Right Speaker

Intro

d---------------|
a---------------|
f---------------|
d---------------|
a---------------|
D-0-0-0-0-0-0---|

first verse

d-0---0---0---0-----|
a-8---7---0---10----|
f-0---0---0---0-----|
d-0---0---0---0-----|
a-------------------|
D-------------------|

next riff "lights out on division st."

d----------------------------|
a----------------------------|
f-99999-77777-55555-44444----|
d-00000-00000-00000-00000----|
a-00000-xxxxx-00000-00000----|
D-00000-88888-00000-00000----|

Pre Chorus - "the night is pouring down"

d---------------------------------|
a---------------------------------|
f---------------------------------|
d-101010101010-0-------777777-8---|
a-8-8-8-8-8-8--0-------777777-8---|
D-8-8-8-8-8-8--0-------777777-8---|

Chorus "this is serious"

d-----------------------|
a-----------------------|
f-7-7-7-7-7-7-7-7777----|
d-8-8-0-8-0-8-0-7777----|
a-8-8-0-8-0-8-0-7777----|
D-8-8-0-8-0-8-0-7777----|

repeat the verses

then theres this riff "hello, hello, is anybody there?"

d--------------------------------------|
a-5555555/777777/1010101010/8888888----|
f-xxxxxxx/xxxxxx/xxxxxxxxxx/xxxxxxx----
d-xxxxxxx/xxxxxx/xxxxxxxxxx/xxxxxxx----| (x2)
a-5555555/777777/1010101010/8888888----|
D--------------------------------------|

d-12121212/14141414/17171717/15151515----
a-xxxxxxxx/xxxxxxxx/xxxxxxxx/xxxxxxxx----
f-xxxxxxxx/xxxxxxxx/xxxxxxxx/xxxxxxxx----
d-12121212/14141414/17171717/15151515----| (x2)
a----------------------------------------|
D----------------------------------------|

Coda part "if this is seriouse ill hide my heart in dark parades"

d------------------|
a------------------|
f--------121212----|
d-888888-121212----|
a-888888-121212----|
D-888888-121212----|

this part "i drew an X on your cities name"

*Harmonics & vol. wells*
---------12*---------------------------|
a-----------12*------------------------|
f--------------12*-12*-----------------|
d--88--------------------0000000-88----|
a--88--------------------0000000-88----|
D--88--------------------0000000-88----|

Next Riff

d----------------------------------------|
a----------------------------------------|
f-------------------7--------------------|
d-----10--10/8--------8----10/8--7bubd---|
a---8-----8--8-0-8------8--8--8----------|
D-8-------8--8-0-8---------8--8----------|

Quiet part

d--------------------------------0----0---0-----0----|
a-----------------------------13---12---20---19------|
f---------------------------0-----0----0----0--------|
d----------------------------------------------------|
a----------------------------------------------------|
D-0~~~~----0~~~~-------------------------------------|

d-------------15-14----14-------|
a-------------------15-----12---|
f-------------------------------|
d-------------------------------|
a-------------------------------|
D-0-0-0-0-----------------------|

end on

d---
a---
f---
D-0-
A-0-
D-0-
Comments