Thursday - Division St Chords & Tabs

 

Division St Chords & Tabs

Thursday Chords & Tabs

Version: 1 Type: Bass Tab 0 ratings
1 star 2 stars 3 stars 4 stars 5 stars
comments

Division St Bass Tab

   
intro (play with bass drum)
G||--------------------------------|-------------------------------|
D||*-------------------------------|-------------------------------|
A||*-------------------------------|-------------------------------|
D||---0--0-0-0--0-0-0-0-0-0-0--0-0-|--0--0-0-0-0-0-0-0--0-0-0--0-0-|

   (second time play low D only)                                                   
-----------------------------------||
----------------------------------*||
----------5-5-5-5-5-5-5-5-5-5-5-5-*||
--0-0-0-0--------------------------||



  riff one
||--------------------------|-------------------------|-------------------------|
||*-------------------------|-------------------------|-------------------------|
||*-------------------------|-------------------------|-------------------------|
||---0--0--0--0----0--0--0--|--7--7--7--7----7--7--7--|--3--3--3--3----3--3--3--|
                                                                                
--------------------------||
-------------------------*||
-------------------------*||
--2--2--2--2----2--2--2---||


 
  riff two                                                                         
||-------------------------|-------------------------|------------------------|
||-------------------------|-------------------------|-----------7------------|
||-------------------------|-------------------------|-----5--5------5/--8-8--|
||--0--0--0--0----0--0--0--|--3--3--3--3----3--3--3--|--0---------------------|
                       
------------------------|
------------------------|
------------------------|
--8--8--8--7--8----8----|

||--------------------------|-------------------------|------------------------|
||*-------------------------|-------------------------|-----------7------------|
||*-------------------------|-------------------------|-----5--5------5/--8-8--|
||---0--0--0--0----0--0--0--|--3--3--3--3----3--3--3--|--0---------------------|

-------------------------||
-------------------------||
-------------------------||
--8--8--8--7--8--8--3/---||



  riff three
||------------------------|------------------|
||*-----------------------|------------------|
||*-----------------------|------------------|
||---8--------8--8--8--0--|------------------|
                                                                  
-------------------------|-------------------||
-------------------------|------------------*||
-------------------------|------------------*||
--7--7--7--7--7--7--8----|-------------------||



  riff four                                       3x                           
||------------------------|-------------------------||
||*-----------------------|------------------------*||
||*-----------------------|------------------------*||
||---8--8--0----8----0----|--8----0----7--7--7--7---||


                                                                               
  riff one
||--------------------------|-------------------------|-------------------------|
||*-------------------------|-------------------------|-------------------------|
||*-------------------------|-------------------------|-------------------------|
||---0--0--0--0----0--0--0--|--7--7--7--7----7--7--7--|--3--3--3--3----3--3--3--|
                                                                                
--------------------------||
-------------------------*||
-------------------------*||
--2--2--2--2----2--2--2---||



  riff five a                                                         
||--------------------|-------------------|--------------------|
||*-------------------|-------------------|--------------------|
||*-------------------|--7----------------|--10----------------|
||---0----------------|-------------------|--------------------|

-----------------------||
----------------------*||
--8----8--------x--8--*||
-----------------------||

   
  riff five b                                                                   
||-----------------------|----------------------|----------------------|
||*----------------------|----------------------|----------------------|
||*----------------------|----------------------|----------------------|
||---0----0----0----0----|--2----2----2----2----|--5----5----5----5----|
                                                 
-----------------------||
----------------------*||
----------------------*||
--3----3----x----3-----||


                                                                               
  riff two                                                                         
||-------------------------|-------------------------|------------------------|
||-------------------------|-------------------------|-----------7------------|
||-------------------------|-------------------------|-----5--5------5/--8-8--|
||--0--0--0--0----0--0--0--|--3--3--3--3----3--3--3--|--0---------------------|
                       
------------------------|
------------------------|
------------------------|
--8--8--8--7--8----8----|

||--------------------------|-------------------------|------------------------|
||*-------------------------|-------------------------|-----------7------------|
||*-------------------------|-------------------------|-----5--5------5/--8-8--|
||---0--0--0--0----0--0--0--|--3--3--3--3----3--3--3--|--0---------------------|

-------------------------||
-------------------------||
-------------------------||
--8--8--8--7--8--8--3/---||

[ Tab from: http://www.guitartabs.cc/tabs/t/thursday/division_st_btab.html ]
 
  riff three                             
||------------------------|------------------|
||*-----------------------|------------------|
||*-----------------------|------------------|
||---8--------8--8--8--0--|------------------|
                                                                        
-------------------------|-------------------||
-------------------------|------------------*||
-------------------------|------------------*||
--7--7--7--7--7--7--8----|-------------------||



  riff four a
||------------------------|-------------------------||
||*-----------------------|------------------------*||
||*-----------------------|------------------------*||
||---8--8--0----8----0----|--8----0----7--7--7--7---||

  
  riff four b                                          3x
||------------------------|------------------------------||
||*-----------------------|-----------------------------*||
||*-----------------------|-----------------------------*||
||---8--8--0----8----0----|--8----0--7/-10--10--10--10---||



  break                                                                          3x
||---------------------|-----------------|----------------|------------------------|
||*--------------------|-----------------|----------------|-----------------------*|
||*--------------------|-----------------|----------------|-----------------------*|
||---8----8------------|-----------------|----------------|--x--0----0----0--0-----|
                                                               
||----------------------|-------------|--------------------|------------------|
||----------------------|-------------|--------------------|------------------|
||-----------------8----|-------------|-----------------8--|------------------|
||--8------8----8-------|------8------|--8------8----8-----|------8-----------|
                                                                
----------------------|------------|---------------------|--------------------------|
----------------------|------------|---------------------|--------------------------|
-----------------8----|------------|-----------------8---|--------------------------|
--8------8----8-------|-----8------|--8------8----8------|--8/----15--15--15----8--|
                                                                  
-------------------|-------------------|-------------------|-------------------|
-------------------|-------------------|-------------------|-------------------|
-------------------|-------------------|-------------------|-------------------|
--0----------------|--0----------------|--0----------------|--0----------------| 

-------------------|-------------------|-------------------------------|
-------------------|-------------------|-------------------------------|
-------------------|-------------------|-------------------------------|
--0----------------|--0----------------|--0--0-0-0--0-0-0-0-0-0-0--0-0-|



  intro riff
||-------------------------------|-------------------------------|
||-------------------------------|-------------------------------|
||-------------------------------|-------------------------------|
||--0--0-0-0--0-0-0-0-0-0-0--0-0-|--0--0-0-0-0-0-0-0--0-0-0--0-0-|
                                                                   
----------------------------------||
----------------------------------||
----------------------------------||
--0-0-0-0-0-0-0-0-0-0-0-0-0-0-0-0-||


                                                                      
  riff two                                                                         
||-------------------------|-------------------------|------------------------|
||-------------------------|-------------------------|-----------7------------|
||-------------------------|-------------------------|-----5--5------5/--8-8--|
||--0--0--0--0----0--0--0--|--3--3--3--3----3--3--3--|--0---------------------|
                       
------------------------|
------------------------|
------------------------|
--8--8--8--7--8----8----|
                                                                        
|-------------------------|-------------------------|------------------------|
|-------------------------|-------------------------|-----------7------------|
|-------------------------|-------------------------|-----5--5------5/--8-8--|
|--0--0--0--0----0--0--0--|--3--3--3--3----3--3--3--|--0---------------------|
                       
------------------------||
------------------------||
------------------------||
--8--8--8--7--8----8----||




                                                                    
  riff five                                                         
||-------------------|-------------------|--------------------|
||-------------------|-------------------|--------------------|
||-------------------|--7----------------|--10----------------|
||--0----------------|-------------------|--------------------|

----------------------|
----------------------|
--8----8--------x--8--|
----------------------|
                                                         
|-------------------|-------------------|--------------------|
|-------------------|-------------------|--------------------|
|-------------------|--7----------------|--10----------------|
|--0----------------|-------------------|--------------------|

----------------------|------------|
----------------------|------------|
--8----8--------x-----|------------|
-------------------8--|--0---------|
Comments