Thursday - Cross Out The Eyes Chords & Tabs

 

Cross Out The Eyes Chords & Tabs

Thursday Chords & Tabs

Version: 3 Type: Tab 0 ratings
1 star 2 stars 3 stars 4 stars 5 stars
comments

Cross Out The Eyes Tab

   
drop d

intro
e------------------------
b----6-5-x-6-5-6-6-6-6-6-
g----5-5-x-5-5-5-5-5-5-5-
d------------------------
a------------------------
d------------------------
[ Tab from: http://www.guitartabs.cc/tabs/t/thursday/cross_out_the_eyes_tab_ver_3.html ]
verse1
e-----------------------------
b-----------------------------
g------5-5-5-5----------------
d-0-0--3-3-3-3--0-0--3-3-3-3--
a-0-0-----------0-0--1-1-1-1--
d-0-0-----------0-0-----------

chorus
e----------------------------------
b----------------------------------
g----------------------------------
d-0--3-3-3--0--3-3-3--0--3-3-3/5-5-
a-0--1-1-1--0--1-1-1--0--1-1-1/3-3-
d-0---------0---------0------------
d-0-0-----------0-0----------------
Comments