Thursday - Cross Out The Eyes Chords & Tabs

 

Cross Out The Eyes Chords & Tabs

Thursday Chords & Tabs

Version: 2 Type: Tab 0 ratings
1 star 2 stars 3 stars 4 stars 5 stars
comments

Cross Out The Eyes Tab

   
tabbed by hensley
song is in drop d Dadgbe


intro 3x
e---------------------------------
b---------------------------------
g---------------------------------
d-10-10-10-10-10-10-10-10-10-10-10
a--8--8--8--7--8--8--7--8--8--8--7
d---------------------------------
pm.....        .        ....

intro(cont.)
e-------
b-------
g-------
d-------
a-------
d-10-16X

pre chorus 2x
e--------------------------------------------------
b--------------------------------------------------
g----------5-5-5-----------------------------------
d-0-0-0-0--3-3-3-3-3-3-3-----------3-3-3-3/5-5-5-5-
a-0-0-0-0--------1-1-1-1--0-0-0-0--1-1-1-1/3-3-3-3-
d-0-0-0-0-----------------0-0-0-0------------------


chorus 2x
e---------------------------------------------------
b---------------------------------------------------
g---------------------------------------------------
d-0-0--3-3-3--0-0--3-3-3--0-0--3-3-3-3/5-5-5-5-5-5-5
a-0-0--1-1-1--0-0--1-1-1--0-0--1-1-1-1/3-3-3-3-3-3-3
d-0-0---------0-0---------0-0-----------------------

2nd verse
e------------------------------
b------------------------------
g------------------------------
d-10-16X--7-16X--3-16X---------
a--8------5------1------0-16X--
d-----------------------0------
[ Tab from: http://www.guitartabs.cc/tabs/t/thursday/cross_out_the_eyes_tab_ver_2.html ]
e------------------------------
b------------------------------
g------------------------------
d-10-16X--7-16X--3-16X--5-16X--
a--8------5------1------3------
d------------------------------

chorus 2x
after chorus 2x
e--------------------------------------------
b--------------------------------------------
g--------------------------------------------
d-0-0--3-3-3----3-3-3---3-3-3-3/5-5-5-5-5-5-5
a-0-0--1-1-1----1-1-1---1-1-1-1/3-3-3-3-3-3-3
d-0-0----------------------------------------

this is the soft part i got from the other cross out the eyes tab
e----------------------------------------------
b-------5---------5---------5-----6-5---5------
g---------5---------5---------5-------5---5----
d-----------x---------x--------x---------------
a---0----------0---------0---------------------
d----------------------------------------------

after that do the chorus 4x
the end
e-------------------------------------------------------
b-------------------------------------------------------
g-------------------------------------------------------
d-7-7-7-7--33333333-33333333--7-7-7-7--00000000-00000000
a-5-5-5-5--33333333-33333333--5-5-5-5--00000000-00000000
d-5-5-5-5--33333333-33333333--5-5-5-5--00000000-00000000

thats it lemme know what ya think
Comments