Thursday - Cross Out The Eyes Chords & Tabs

 

Cross Out The Eyes Chords & Tabs

Thursday Chords & Tabs

Version: 1 Type: Tab 0 ratings
1 star 2 stars 3 stars 4 stars 5 stars
comments

Cross Out The Eyes Tab

Drop D tuning

Intro guitar 1 (2x)
e----------------------------------------
b----------------------------------------
g-x-x---5-5--x--5-5--x--5-5-5-5----------
d-x-x---3-2--x--3-2--x--3-3-2-0----------
a-x-x------------------------------------
d----------------------------------------

e----------------------------------------
b----------------------------------------
g-x-x---5-5--x--5-5--x--5-5-5-5----------
d-x-x---3-2--x--3-2--x--3-3-2-0----------
a-x-x------------------------------------
d----------------------------------------
e----------------------------------------
b----------------------------------------
g-x-x---5-5--x--5-5--x--5-5-5-5----------
d-x-x---3-2--x--3-2--x--3-3-2-0----------
a-x-x------------------------------------
d----------------------------------------

e----------------------------------------
b----------------------------------------
g--5////////////////////////-------------
d--5////////////////////////--------------
a--3////////////////////////------------
d----------------------------------------

guitar 2 plays these chords over the intro

e----------------------------------------
b----------------------------------------
g---5------------------------------------
d---3---------7----------3-------5-------
a-------------5----------1-------3-------
d----------------------------------------



Pre Chorus

e----------------------------------------
b----------------------------------------
g---------------------------------------
d--0---0----0-0-------3/////////////----
a--0---0----0-0-------1/////////////----
d--0---0----0-0-------------------------


Chorus

e----------------------------------------
b----------------------------------------
g---------------------------------------
d--0-----3-3-3----0---3-3-3---0---3-3-3--5/////////////
a--0-----1-1-1----0---1-1-1---0---1-1-1--3/////////////
d--0--------------0-----------0-------------

[ Tab from: http://www.guitartabs.cc/tabs/t/thursday/cross_out_the_eyes_tab.html ]
2nd verse
e----------------------------------------
b----------------------------------------
g---5------------------------------------
d---3---------7----------3-------5-------
a-------------5----------1-------3-------
d----------------------------------------

After 2nd Chorus
e----------------------------------------------
b-------5---------5---------5-----6-5---5------
g---------5---------5---------5-------5---5----
d-----------x---------x--------x---------------
a---0----------0---------0---------------------
d----------------------------------------------

end 4x

e----------------------------------------
b----------------------------------------
g---------------------------------------
d---7--7--7--7----5/////////////---------
a---5--5--5--5----3////////////----------
d---5--5--5--5----3////////////----------


Let's call this the quiet city:
Where screams are flet as a wave of stoplights
Drive through the the streets as gunshots punctuate the night
The sides we take divide us from our faith
And the morning dove gets caught in the telephone wire

Asleep you set the fire in your own house
And the night was a knife that cut
And I'm paralyzed

Cross out the eyes
Blur all the lines
Tearing this canvas from the wall
We crossed out the eyes
Put lines through these cries
We pulled all the leaves from the trees that fall

A silent dance that we did into this hospital bed
Hear voices from another room
"It happens all the time"
But July in the sand
Then the leaves that fall
And counting down our days to live....
Drain the blood from this valentine.

"We can rise on the wings of the dove
See blue skies getting caught in the trail of all this smoke
We can rise like candles in the dark your always"
and an envelope marked with your new address 

It was the first time face to face
I'm crossing the line
Talking to the other side of death
Hearing the words that choke memories into flatlines
I'm calling your name hoping for something to wash these dreams of you away

Our fence was blown down in a winter storm and this field
stretched out of this world into the sound of a trace of blood in a love song
What can we do to put a stop to the coming white days?
I'm hoping the snow will push these dreams of you away
Comments