Thursday - Cross Out The Eyes Chords & Tabs

 

Cross Out The Eyes Chords & Tabs

Thursday Chords & Tabs

Version: 1 Type: Bass Tab 0 ratings
1 star 2 stars 3 stars 4 stars 5 stars
comments

Cross Out The Eyes Bass Tab

 DADG tuning
 
G:----------------------|
D:----------------------|
A:-8x16-5x16------------| x2
D:-----------8x16-10x16-|
 
0:26
G:-------------------------------|
D:-------333---------------------|
A:----------1111--------111h3333-| x2
D:-0-0-00---------0-0-0----------|
 
:37
G:-------------------------------|----|
D:-------------------------------|----|
A:----111----111----1111h3333333-|----| x2
D:-0-0----0-0----0-0-------------|-0*-|
 
:59
G:---------------------|---------------------|
D:-3x16----------------|-3x16----------------|
A:------5x16-1x16------|------5x16-1x16-3x16-|
D:----------------0x16-|---------------------|
 
1:23
G:---------------------|--------------------------|
D:-3------------3*-----|-3------------3*-3--------|
A:---1*-------1--------|---1*-------1------1-3x16-|
D:-------0*---------0*-|-------0*-----------------|
 
1:48
G:-------------------------------|
D:-------333---------------------|
A:----------1111--------111h3333-| x2
D:-0-0-00---------0-0-0----------|
 
1:59
G:-------------------------------|------------------------|----|
D:-------------------------------|------------------------|----|
A:----111----111----1111h3333333-|----111-111-1111h333333-|----| first two x2
D:-0-0----0-0----0-0-------------|-0-0--------------------|-0*-|
 
2:30
G:----------------------------------------------------------|--------------|
D:----------------------------------------------------------|--------------|
A:----------------------------------------------------------|-0*---0*---0*-|
D:-7*-7*-7*-7*-7*-7*-7*-7*-7*-7*-7*-7*-7*-7*-7*-7*-7*-7*-7*-|--------------|
 
3:01
G:-------------------------------|
D:-------------------------------|
A:----111----111----1111h3333333-| x4
D:-0-0----0-0----0-0-------------|
 
2:27
G:-----------------------------------------------|------|
D:-----------------------------------------------|------|
A:---------0-------------------------------------|------| x2
D:-5-5-5-5--33333-33333-5-5-5-5-0000000000000000-|-/10*-|
[ Tab from: http://www.guitartabs.cc/tabs/t/thursday/cross_out_the_eyes_btab.html ]
Comments