Thursday - Concealer Chords & Tabs

 

Concealer Chords & Tabs

Thursday Chords & Tabs

Version: 1 Type: Bass Tab 0 ratings
1 star 2 stars 3 stars 4 stars 5 stars
comments

Concealer Bass Tab

Part 1
G/------------------------------------------------------------------------------|
D/------------------------------------------------------------------------------|
A/------------------------------------------------------------------------------|
D/--7-7-7-7-7-7-7-7--3-3-3-3-3-3-3-3--------------------------------------------|

Part 2
G/------------------------------------------------------------------------------|
D/------------------------------------------------------------------------------|
A/------------9*----------5-----------------------------------------------------|
D/--7-7-7-7----------3-3---3-3-3-3-3--------------------------------------------|

Part 3
G/------------------------------------------------------------------------------|
D/------------------------------------------------------------------------------|
A/--3-3-3-3-3-3-3-3-------------------------------------------------------------|
D/----------------------3-3-3-3-3-3-3-3-7-7-7-7-7-7-7-7-9-9-9-9-12-12-12-12-----|
[ Tab from: http://www.guitartabs.cc/tabs/t/thursday/concealer_btab.html ]
Part 4
G/---------------------------------------------------------------------------------|
D/---------------------------------------------------------------------------------|
A/--3-3-3-3-3-3-3-3-------------5--------------------------------------------------|
D/----------------------3-3-3-3---3-3-3-7-7-7-7-7-7-7-7-3-3-3-3-3-3-3-3------------|

Part 5
G/-----------------------------------------------------------------------------------|
D/-----------------------------------------------------------------------------------|
A/---------------------3-3-3-3--3-3-3-3----------------------------------------------|
D/-7-7-7-7--7-7-7-7 --------------------3-3-3-3--3-3-3-3--2-2-2-2-3-3-3-3------------|

Part 6  Right after he says "Candace beats down..."
G/------------------------------------------------------------------------------|
D/------------------------------------------------------------------------------|
A/------------------------------------------------------------------------------|
D/-7-3-3-3-3-3-3-3-7-7-7-7------------------------------------------------------|
End playing:
A/0-0-0-0--0-0-0-0 or        D/7-7-7-7-7-7-7-7


Order
Part1 x1
Part2 x1
Part1 x3
Part2 x1
Part1 x2
Part3 x1
Part4 x1
Part5 x2
Part6 x4
Comments