Thursday - Between Rupture And Rapture Chords & Tabs

 

Between Rupture And Rapture Chords & Tabs

Thursday Chords & Tabs

Version: 1 Type: Tab 0 ratings
1 star 2 stars 3 stars 4 stars 5 stars
comments

Between Rupture And Rapture Tab

Thursday
Between Rupture and Rapture

tuning(low to high: dadgbe)

intro
gtr1
|----------------------------------
|----------------------------------
|-4-4-4-4-4-4-4-4-4-4-4-4-4-4-4-4--
|----------------------------------
|----------------------------------
|----------------------------------
Pm- - - - - - - - - - - - - - - - 
[ Tab from: http://www.guitartabs.cc/tabs/t/thursday/between_rupture_and_rapture_tab.html ]
|----------------------------------
|----------------------------------
|-4-4-4-4-4-4-4-4-4-4-4-4-4-4-4-4--
|----------------------------------
|----------------------------------
|----------------------------------
light pm- - - - - - - - - - - - -

|----------------------------------
|----------------------------------
|-4-4-4-4-4-4-4-4-2h4-4-4-4-4-4-4--
|----------------------------------
|----------------------------------
|----------------------------------
Pm- - - - - - - -     - - - - - -

gtr2
|----------------------------------
|----------------------------------
|-11~---------4~-------------------
|-9~----7~----2~-------------------
|-9~----5~----2~-------------------
|-9~----5~----2~-------------------
Comments