Thursday - Between Rupture And Rapture Chords & Tabs

 

Between Rupture And Rapture Chords & Tabs

Thursday Chords & Tabs

Version: 1 Type: Bass Tab 0 ratings
1 star 2 stars 3 stars 4 stars 5 stars
comments

Between Rupture And Rapture Bass Tab

   
Intro
Chorus
Verse
Chorus
Bridge
Outro
____________________________________________________________

Intro
  1 * 2 * 3 * 4 *  * * * * * * * *
G|----------------|----------------|
D|----------------|----------------|
A|----------------|----------------|
D|9---5---2-------|----------------|

  * * * * * * * *  * * * * * * * *   
G|----------------|----------------|
D|--------------5-|----------------|
A|2-/-9---5-7-5---|5---------------|
D|----------------|----7-/-9-------|

  * * * * * * * *  * * * * * * * *   
G|----------------|----------------|
D|--------------5-|----------------|
A|2-/-9---5-7-5---|5---2-/-7-------|
D|----------------|----------------|

  * * * * * * * *  * * * * * * * *   
G|----------------|----------------|
D|--------------5-|----------------|
A|2-/-9---5-7-5---|5---------------|
D|----------------|----7-7-7-7-7-7-|

____________________________________________________________

Chorus

  * * * * * * * *  * * * * * * * *   
G|----------------|----------------|
D|----------------|----------------|
A|2-2-2-2-2-2-2-2-|----------------|
D|----------------|5-5-5-5-5-5-5-5-|

  * * * * * * * *  
G|----------------|
D|----------------|
A|----------------|
D|2-2-2-2-2-2-2-2-|

  * * * * * * * *  * * * * * * * *   
G|----------------|----------------|
D|----------------|----------------|
A|2-2-2-2-2-2-2/5-|----------------|
D|----------------|5-5-5-5-5-5-5/7-|

  * * * * * * * *  
G|----------------|
D|----------------|
A|----------------|
D|2-2-2-2-2-2-2-2-|

  * * * * * * * *  * * * * * * * *   
G|----------------|----------------|
D|----------------|----------------|
A|2-2-2-2-2-2-2-2-|--------7---7---|
D|----------------|5-5-5-5---5---5-|

  * * * * * * * *  
G|----------------|
D|----------------|
A|----------------|
D|2-9/2-9/2-9/2-9/2

  * * * * * * * *  * * * * * * * *   
G|----------------|----------------|
D|----------------|----------------|
A|2-2-2-2-9-9-9-9-|--------7-7-7-7-|
D|----------------|5-5-5-5---------|

  * * * * * * * *  * * * * * * * *
G|----------------|----------------|
D|----------------|----------------|
A|----------------|----------------|
D|2-2-2-2-7-7-7-7-|7-7-7-7-7-7-7-7-|

____________________________________________________________

Verse

Variate around.

  * * * * * * * *  * * * * * * * *
G|----------------|----------------|
D|----------------|----------------|
A|------------4-4-|4-4-4-4-4-4-0-0-|
D|6-6---6-6-------|----------------|

  * * * * * * * *  
G|----------------|
D|----------------|
A|0-0-2-7-7-7-7-7-|
D|----------------|

  * * * * * * * *  * * * * * * * *
G|----------------|----------------|
D|----------------|----------------|
A|------------4-4-|4-4-4-4-4-4-----|
D|6-6---6-6-------|------------2-2-|

  * * * * * * * *  
G|----------------|
D|----------------|
A|----------------|
D|2-2-2-5-5-5-5-5-|

____________________________________________________________

Bridge

  * * * * * * * *  * * * * * * * *  
G|----------------|----------------|
D|----------------|----------------|
A|----------------|----------------|
D|2---2-2-2-2-2-2-|----------------|

  * * * * * * * *  
G|----------------|
D|----------------|
A|----------------|
D|--------------9/|
[ Tab from: http://www.guitartabs.cc/tabs/t/thursday/between_rupture_and_rapture_btab.html ]
  * * * * * * * *  * * * * * * * *  
G|----------------|----------------|
D|----------------|----------------|
A|----------------|----------------|
D|2---2-2-2-2-2-2-|----------------|

  * * * * * * * *  
G|----------------|
D|----------------|
A|----------------|
D|--------------9/|

  * * * * * * * *  * * * * * * * *  
G|----------------|----------------|
D|----------------|----------------|
A|----------------|----------------|
D|2---2-2-2-2-2-2-|2-0-2-4-2-0-2-0-|

  * * * * * * * *  * * * * * * * *  
G|----------------|----------------|
D|----------------|----------------|
A|----------------|----------------|
D|2-0-2-4-2-0-2-0-|2-0-2-4-2-0-2-0-|

  * * * * * * * *  * * * * * * * *  
G|----------------|----------------|
D|----------------|----------------|
A|----------------|----------------|
D|2---2-2-2-2-2-2-|2-0-2-4-2-0-2-0-|

  * * * * * * * *  * * * * * * * *  
G|----------------|----------------|
D|----------------|----------------|
A|----------------|----------------|
D|2-0-2-4-2-0-2-0-|2-0-2-4-2-0-2-0-|
____________________________________________________________

Outro

  * * * * * * * *  * * * * * * * *  
G|----------------|----------------|
D|----------------|----------------|
A|----------------|----------------|
D|2-2-2-2-2-2-2-2-|5-5-5-5-5-5-5-5-|

  * * * * * * * *  * * * * * * * *  
G|----------------|----------------|
D|----------------|----------------|
A|----------------|----------------|
D|9-9-9-9-9-9-9-9-|7-7-7-7-7-7-7-7-|

  * * * * * * * *  * * * * * * * *  
G|----------------|----------------|
D|----------------|----------------|
A|----------------|----------------|
D|2-2-2-2-2-2-2-2-|5-5-5-5-5-5-5-5-|

  * * * * * * * *  * * * * * * * *  
G|----------------|----------------|
D|----------------|----------------|
A|----------------|----------------|
D|7-7-7-7-7-7-7-7-|9-9-9-9-9-9-9-9-|

  * * * * * * * *  * * * * * * * *  
G|----------------|----------------|
D|----4-------4---|----7-------7---|
A|2-2---2-2-2---2-|5-5---5-5-5---5-|
D|----------------|----------------|

  * * * * * * * *  * * * * * * * *  
G|----------------|----------------|
D|----4-------4---|----9-------9---|
A|2-2---2-2-2---2-|7-7---7-7-7---7-|
D|----------------|----------------|

  * * * * * * * *  * * * * * * * *  
G|----------------|----------------|
D|----4-------4---|----7-------7---|
A|2-2---2-2-2---2-|5-5---5-5-5---5-|
D|----------------|----------------|

  * * * * * * * *  * * * * * * * *   
G|----------------|----------------|
D|----------------|----------------|
A|2-2-2-2-2-2-2-2-|----------------|
D|----------------|5-5-5-5-5-5-5-5-|

  * * * * * * * *  
G|----------------|
D|----------------|
A|----------------|
D|2-2-2-2-2-2-2-2-|

  * * * * * * * *  * * * * * * * *   
G|----------------|----------------|
D|----------------|----------------|
A|2-2-2-2-9-9-9-9-|--------7-7-7-7-|
D|----------------|5-5-5-5---------|

  * * * * * * * *  * * * * * * * *
G|----------------|----------------|
D|----------------|----------------|
A|----------------|----------------|
D|2-2-2-2-7-7-7-7-|7-7-7-7-7-7-7-7-|

  * * * * * * * *  * * * * * * * *   
G|----------------|----------------|
D|----------------|----------------|
A|----------------|----------------|
D|2-2-2-2---------|2-2-2-2--2-2-2-2|

  * * * * * * * *  * * * * * * * *
G|----------------|----------------|
D|----------------|----------------|
A|----------------|----------------|
D|2-9/2-9/2-9/2-9/2
Comments