Thursday - Autumn Leaves Revisited Chords & Tabs

 

Autumn Leaves Revisited Chords & Tabs

Thursday Chords & Tabs

Version: 1 Type: Tab

Autumn Leaves Revisited Tab

Autumn Leaves Revisited by thursday
tabbed by sleepytimetrio

Intro - acoustic guitar

e-----------------------------------------------------------------------------|
b--------10-----------------10/15-15/10----------10---------------------------|
g------------9/7/9----------------------------------9/7/9----------9-9^9^9----|
d---0-0--------------10-10-----------------8-8---------------7-7--------------|
a-----------------------------------------------------------------------------|
D-----------------------------------------------------------------------------|

After 1st verse play that again, they just switch it on the album to electric.

Then this part before the loud part

Guitar 1

e-------------------|
b--1---1---1---1----|
g--2---2---2---2----|
d-------------------|
a-------------------|
D-------------------|

Guitar 2 - distorted and scraping

e------------------|
b------------------|
g-17///--171717----|
d-x-///--xxxxxx----|
a-15///--151515----|
D------------------|

Loud distorted part

Guitar 1

e-----------------------------|
b-----------------------------|
g-----------------------------|
d-0~---10~-----8~----7~-------|
a-0~---10~-----8~----7~-------|
D-0~---10~-----8~----7~-------|  (x2)

Guitar 2 - slide up to each octave chord

e------------------------------------|
b------------------------------------|
g-///19~---///17~---///22~--19--17---|
d-///x~----///x~----///x~---x---x----|
a-///17~---///15~---///20~--17--15---|
D------------------------------------| (x2)

Verse 2 - acoustic guitar

e-----------------------------------------------|
b-----------------------------------------------|
g-------------22222222-2222222-22222-22222------|
d-3333333333--22222222-0000000-33333-22222------|
a-5555555555--33333333--------------------------| -first time
D-----------------------------------------------|

e-------------------------------------------------|
b-------------------------------------------------|
g-----------2222-333-222222-22222-222222-2~-------|
d-33333333--2222-222-000000-33333-222222-0~-------|
a-55555555--3333-333-------------------------- -2-|nd time
D-------------------------------------------------|

Next part

Guitar 1
[ Tab from: http://www.guitartabs.cc/tabs/t/thursday/autumn_leaves_revisited_tab.html ]
e-------------------------------------------------|
b-------------------------------------------------|
g-7-7-9-10--9-9-10-12--10-10-12-14--15-14-12-14---|
d-------------------------------------------------|
a-------------------------------------------------|
D-------------------------------------------------|

Guitar 2

e----0--------------------------------------------------|
b----5----------------------------------------5---------|
g-7-------------------------------------------------7---|
d-------------------------------------------------------|
a-------------------------------------------------------|
D-------------------------------------------------------|

when it starts building up and he starts to sing "it wont be long"

Guitar 2 - add distortion towards end - guitar one continues riff above

e--0-0-0-0-0-0-0-0-0-0-0-0-0-0-0-0-0-0-0-0-0-0-0-0--0--0--0--0--0----|
b-3-3-3-3-3-3-5-5-5-5-5-5-6-6-6-6-6-6-8-8-8-8-8-8-10-10-10-10-10-----|
g--------------------------------------------------------------------|
d--------------------------------------------------------------------|
a--------------------------------------------------------------------|
D--------------------------------------------------------------------|

then this part

Guitar 1

e-----------------------------|
b-6--8--8--6---3---5--5---3---|
g-7--7--7--7---0---0--0---0---|
d-----------------------------|
a-----------------------------|
D-----------------------------|

Guitar 2 lots of pick scraping
Guitar 2 - distorted and scraping

e-----------|
b-----------|
g------10~--|
d-7~---8~---|
a-7~---8~---|
D-7~---8~---|

then guitar 1 strums this chord

e-------------------|
b---6-6------6------|
g-7-7-7-7-7--7------|
d-8-8-8-8-8--8------|
a-------------------|
D-------------------|

after that most of the parts repeat until guitar 1s last loud distorted part
it does this

e------------------------|
b------------------------|
g------------------------|
d-0~--10~---8~--7~--5~---|
a-0~--10~---8~--7~--5~---|
D-0~--10~---8~--7~--5~---|

Outro

guitar 1

e------------------------|
b------------------------|
d------------------------|
a------------------------|
D-0----10---8---7-5--0---|

guitar 2 pick scraping

then acoustic guitar

e-----------------------------------------------------|
b-----------------------------------------------------|
g-2-2-------------------2-2---------------------------|
d-0-0--10-10--8-8--8-7--0-0--10-12--8-8--8-7--0~~~~---|
a-0-0--10-10--8-8--8-7--0-0--10-10--8-8--8-7--0~~~~---|
D-0-0--10-10--8-8--8-7--0-0--10-10--8-8--8-7--0~~~~---|

The end.