Thursday - Autobiography Of A Nation Chords & Tabs

 

Autobiography Of A Nation Chords & Tabs

Thursday Chords & Tabs

Version: 2 Type: Tab 0 ratings
1 star 2 stars 3 stars 4 stars 5 stars
comments

Autobiography Of A Nation Tab

                                          questions dadio3164@aol.com


e|----------------------|----------------|-----------|
B|10-8---------8--10-7--|------10--------|-----------|
G|------9h10p9----------|10--------------|-----10----|
D|----------------------|8--10-7--8--10--|-----8-----|
A|0--0--0------0--0--0--|8--8--8--8--8---|-----8-----|
E|----------------------|----------------|-----------|

3X
e|--------------|-----------|
B|--------------|End-On-This|
G|---12/10/910-|-----------|
D|8-------------|-----8-----|
A|8--10/8-/78--|-----8-----|
E|8~------------|-----8-----|


[ Tab from: http://www.guitartabs.cc/tabs/t/thursday/autobiography_of_a_nation_tab_ver_2.html ]
e|----------------------------------------------------|
B|----10b11----10b11---10b11---10b11---10b11---10b11--|
G|----12b14----12b14---12b14---12b14---12b14---12b14--|
D|8888-----8888-----000-----000-----000-----000-------|
A|8888-----8888-----000-----000-----000-----000-------|
E|8888-----8888-----000-----000-----000-----000-------|



   2X                  4X
e|---------------|--------------|
B|---------------|--------------|
G|17--15--14-----|15--17--14----|
D|15--15--15-----|--15--15--15--|
A|---------------|--------------|
E|---------------|--------------|


e|------------------|
B|------------------|
G|---------------7--|
D|8--5--0--8--5--7--|
A|8--5--0--8--5--5--|
E|8--5--0--8--5-----|



      (4X)
e|-----------------|
B|-----------------|
G|10/12------------|
D|-------10--5--8--|
A|8-/10--10--5--8--|
E|-------10--5--8--|



     (4X)
e|----------------|
B|----------------|
G|----------------|
D|0--8--0--0-0-8--|
A|0--8--0--0-0-8--|
E|0--8--0--0-0-8--|

Comments