Thursday - Asleep In The Chapel Chords & Tabs

 

Asleep In The Chapel Chords & Tabs

Thursday Chords & Tabs

Version: 4 Type: Tab 0 ratings
1 star 2 stars 3 stars 4 stars 5 stars
comments

Asleep In The Chapel Tab

   
-------------------------------------------------------------------------------
			     Asleep in the Chapel - Thursday
-------------------------------------------------------------------------------
Tabbed by:cam
Email:ebskater@gmail.com

the first part is the 2 guitars put together to sound better.

Tuning: eadgbe

e|-22-22-22-00-------------------------------|
B|-33-33-33-33--/2---------------------------|
G|-22-22-22-22x4-----------------------------|
D|-------------------------------------------|


e|--------------------------------3p2----|
B|------------------------3---3------3---|
G|-----------------------4-4---4------4--|
D|--4-------------------4---4---4--------|
A|--2-x32-5------------2-----2---2-------|
E|--------3-x32--------------------------|

e|----------------------------------------|
B|----3---3---3---------------------------|
G|---5-5---5---5--------------------------|not to sure about this part
D|--5---5---5---5-------------------------|
A|----------------------------------------|
E|-3-----3---3---3------------------------|
[ Tab from: http://www.guitartabs.cc/tabs/t/thursday/asleep_in_the_chapel_tab_ver_4.html ]
e|--------------------------------------------------------|
B|------9---------888888/77-7777/10-1010/11\10------8/10--|
G|------x---------xxxxxx/xx-xxxx/x--xxxx/x-\x--6-666x/x---|go right into next
D|------6------1--555555/44-4444/7--7-7-/8-\7--x-xxx5/7---|part from here
A|-999----999--1-------------------------------4-444------|
E|-777----777---------------------------------------------|

e|-7----------107--------------------------|
B|--8778-78-78---8-------------------------|you can figure out where that is
G|------9--9-------------------------------|played
D|-----------------------------------------|
A|-----------------------------------------|
E|-----------------------------------------|

e|------------------------------------------|
B|------------------------------------------|
G|------------------------------------------|
D|-----4---0--------------------------------|then theres this part after the
A|-5---2---0---4----------------------------|above
E|-3-----------2----------------------------|

thats the song. you can figure out the parts by listening to the song. it repeats
a few parts a few times. im almost 99% sure for this one.


| /  slide up
| \  slide down
| h  hammer-on
| p  pull-off
| ~  vibrato
| +  harmonic
| x  Mute note
===============================================================================
Comments