Thursday - Asleep In The Chapel Chords & Tabs

 

Asleep In The Chapel Chords & Tabs

Thursday Chords & Tabs

Version: 2 Type: Tab 0 ratings
1 star 2 stars 3 stars 4 stars 5 stars
comments

Asleep In The Chapel Tab

----------------------------------------------------------------------------
Asleep In the Chapel - Thursday
-------------------------------------------------------------------------------
Tabbed by: shaun nekwirk
Email: shnervwd@yahoo.com
THIS TAB IS 100% CORRECT I KNOW THE GUYS FROM THURSDAY AND HUNG OUT AND THEY
PLAYED THE SONG 100% CORRECT!!!!!!! (modified the string coding)
[ Tab from: http://www.guitartabs.cc/tabs/t/thursday/asleep_in_the_chapel_tab_ver_2.html ]
1|---------------------------------------------------------------------------|
2|---------------------------------------------------------------------------|
3|4---------4------------4------4--------------------------------------------|
4|4--x2-----4----x2------0--x2--0-x2-----------------------------------------|
5|3---------0------------0------0--------------------------------------------|
6|2---------2------------2------0--------------------------------------------|

I'LL POST REST OF SONG LATER MAYBE PLEASE EMAIL ME FOR MORE (WAR ALL THE TIME)I
KNOW THEM ALL 100% HAHA SOME OF YOU MAY DOUBT ME BUT I AM 100% SURE OF ALL THE
TABS I CAN EVEN PUT THEM IN MUSICAL FORM FOR YOU!!!
Comments