Thursday - A Hole In The World Chords & Tabs

 

A Hole In The World Chords & Tabs

Thursday Chords & Tabs

Version: 1 Type: Bass Tab 0 ratings
1 star 2 stars 3 stars 4 stars 5 stars
comments

A Hole In The World Bass Tab

   
Tuning: drop D (D,A,D,G)

Intro (0:06) 3 times
G|-------------|
D|-------------|
A|-------------|
D|-3>-5>-0>----|

(0:33)
G|---------------------------------|
D|---------------------------------|
A|---------------------------------|
D|-3>-5>--0-0-0-0-0-0--0-0-0-0-0-0-|

(0:42) 2 times
G|--------------------------------------------------------------------|
D|--------------------------------------------------------------------|
A|--------------------------------------------------------------------|
D|-5-5--5-5--5-5--5-5--5-7/8>--3-3-3-3-3/5-5-5-5-5--0--0-0--0--0-0--0-|

(1:06)
G|-------------------------------------------------------------------|
D|-------------------------------------------------------------------|
A|-------------------------------------------------------------------|
D|--3-3-3-3-3/5-5-5-5-5--0--0-0--0--0-0--0-0--0----------------------|
[ Tab from: http://www.guitartabs.cc/tabs/t/thursday/a_hole_in_the_world_btab.html ]
(1:12) 2 times
G|-------------------------------------------------------------------|
D|-------------------------------------------------------------------|
A|-------------------------------------------------------------------|
D|-0>--7>--3>--5>----------------------------------------------------|

(1:36)
G|-------------------------------------------------------------------|
D|-------------------------------------------------------------------|
A|-------------------------------------------------------------------|
D|-0>--7>--3-3-3-3-3/5-5-5-5-5-0-0-0-0-0-0-0-------------------------|

(1:48)
G|-------------------------------------------------------------------|
D|-------------------------------------------------------------------|
A|-------------------------------------------------------------------|
D|-3-3-3-3-3/5-5-5-5-5-0-0-0-0-0-0-0---------------------------------|

(1:54)
G|-------------------------------------------------------------------|
D|-------------------------------------------------------------------|
A|----------------------------8-7-3----------------------------------|
D|-8>-7>-0>-3>---8>-7>-0>-8>-----------------------------------------|

(2:28) each note play 5 times
G|-------------------------------------------------------------------|
D|-------------------------------------------------------------------|
A|-------------------------------------------------------------------|
D|-8--5--8--0--5--8--0--(continue to play open until the end)--------|
Comments