Thunderstone - Spread My Wings Solo Chords & Tabs

 

Spread My Wings Solo Chords & Tabs

Thunderstone Chords & Tabs

Version: 1 Type: Tab 0 ratings
1 star 2 stars 3 stars 4 stars 5 stars
comments

Spread My Wings Solo Tab

   
Artist: Thunderstone
Song: Spread My Wings Solo
Tabber: Alex "D4rKy" Styles
Comment:Hi folks, this solo is really great and quite easy to play:
[ Tab from: http://www.guitartabs.cc/tabs/t/thunderstone/spread_my_wings_solo_tab.html ]
E|-------------------------------------------------------------------------
H|--8---10--8---------------8-------------15b(2)r--13-12-------------------
G|------------7---------10-----9--7----------------------12----------------
D|-----------------\10--------------10----------------------12-------------
A|-------------------------------------------------------------14-15-14----
E|-------------------------------------------------------------------------
					  P.H.
E|----------------------------------------------------------|
H|-15br-------------------------------------------------21b-|
G|-------------------------------------12br-----------------|
D|---------------12----------------12-------12--------------|
A|---------15-14----12------14--15--------------------------|
E|----------------------------------------------------------|
   P.H.
Comments