Thunderclap Newman - Something In The Air Chords & Tabs

 

Something In The Air Chords & Tabs

Thunderclap Newman Chords & Tabs

Version: 2 Type: Tab 0 ratings
1 star 2 stars 3 stars 4 stars 5 stars
comments

Something In The Air Tab

   
Date: Mon, 03 Nov 1997 21:57:28 GMT
From: Malc Brookes 
To: guitar@olga.net
Subject: TAB/CRD: Something in the Air by Thunderclap Newman

Something In The Air by Thunderclap Newman
Tabbed by Malc Brookes (malc@malbro.demon.co.uk)


Notes.
The chords for the instrumental section are a rough
guide only, as the guitar doesn't feature, the only
instruments used being piano, bass and strings.


Tuning.
Open E, EBEG#BE.


Chords.
E        000000
F#m7add4 220100
F#       222222
G#m7add4 442322
G#       444444
A#m7add4 664544


E / / / F#m7add4 / / / E / / / F#m7add4 / / /

E
Call out the instigators

                F#m7add4
Because there?s something in the air

             E
We?ve got to get together sooner or later

            F#m7add4
Because the revolution?s here, and you know it?s...

E |-----------------------------------|
B |-----------------------------------|
G#|------0-------0-------0-------0----|
E |----0-------0-------0-------0------|
B |--5-----5-3-----3-2-----2-0-----0--|
E |-----------------------------------|
  ...right


E |-----------------------------------|
B |-----------------------------------|
G#|------0-------0-------0-------0----|
E |----0-------0-------0-------0------|
B |--5-----5-3-----3-2-----2-0-----0--|
E |-----------------------------------|
       And you know that it?s right


F#m7add4
We have got to get it together

We have got to get it together...

E |-----------------------------------|
B |-----------------------------------|
G#|------0-------0-------0-------0----|
E |----0-------0-------0-------0------|
B |--5-----5-3-----3-2-----2-0-----0--|
E |-----------------------------------|
  ...Now


E |-----------------------------------|
B |-----------------------------------|
G#|------0-------0-------0-------0----|
E |----0-------0-------0-------0------|
B |--5-----5-3-----3-2-----2-0-----0--|
E |-----------------------------------|


F# / / / G#m7add4 / / / F# / / / G#m7add4 / / /

F#
Lock up the streets and houses

                G#m7add4
Because there?s something in the air

             F#
We?ve got to get together sooner or later

            G#m7add4
Because the revolution?s here, and you know it?s...
[ Tab from: http://www.guitartabs.cc/tabs/t/thunderclap_newman/something_in_the_air_tab_ver_2.html ]
E |-----------------------------------|
B |------2-------2--------------------|
G#|----2-------2---------2-------2----|
E |--2-----2-----------2-------2------|
B |----------5-----5-4-----4-2-----2--|
E |-----------------------------------|
  ...right


E |-----------------------------------|
B |------2-------2--------------------|
G#|----2-------2---------2-------2----|
E |--2-----2-----------2-------2------|
B |----------5-----5-4-----4-2-----2--|
E |-----------------------------------|
       And you know that it?s right


G#m7add4
We have got to get it together

We have got to get it together...


Instrumental Section.

F#5 F#add6 F#5 F#add6 F#5 F#add6 F#5 F#add6
E |-------------------|-------------------|
B |-------------------|-------------------|
G#|-------------------|-------------------|
E |--2-2-2-2-2-2-2-2--|--2-2-2-2-2-2-2-2--|
B |--2-2-4-4-2-2-4-4--|--2-2-4-4-2-2-4-4--|
E |--2-2-2-2-2-2-2-2--|--2-2-2-2-2-2-2-2--|
  ...Now


E5 Eadd6 E5 Eadd6 E5 Eadd6 E5 Eadd6

F5 Fadd6 F5 Fadd6 F5 Eadd6 F5 Fadd6

G5 Gadd6 G5 Gadd6 G5 Gadd6 G5 Gadd6

C5 / / / F5 / / /

C5 / / / F5 / / /

F5 / / / F5 / / /

C5 / / / G5 / / /

C5 / / / F5 / / /

C5 / / / F5 / / /

C5 / / / G#5 G5 G#5 G5

C5 / / / F5 / / /


G# / / / A#m7add4 / / / G# / / / A#m7add4 / / /

G#
Hand out the arms and ammo

               A#m7add4
We?re going to blast our way through here

             G#
We?ve got to get together sooner or later

            A#m7add4
Because the revolution?s here, and you know it?s...

E |-----------------------------------|
B |------4-------4--------------------|
G#|----4-------4---------4-------4----|
E |--4-----4-----------4-------4------|
B |----------7-----7-6-----6-4-----4--|
E |-----------------------------------|
  ...right


E |-----------------------------------|
B |------4-------4--------------------|
G#|----4-------4---------4-------4----|
E |--4-----4-----------4-------4------|
B |----------7-----7-6-----6-4-----4--|
E |-----------------------------------|
       And you know that it?s right


A#m7add4
We have got to get it together

We have got to get it together

G#
Now
Comments