Thunder - It Happened In This Town Chords & Tabs

 

It Happened In This Town Chords & Tabs

Thunder Chords & Tabs

Version: 1 Type: Tab 0 ratings
1 star 2 stars 3 stars 4 stars 5 stars
comments

It Happened In This Town Tab

   
THUNDER
IT HAPPENED IN THIS TOWN
BEHIND CLOSED DOORS

Hello everybody, here’s my first song from THUNDER…
If you have any questions: tttommy@zoznam.sk

Intro:
          Two times   
<––––––––––––––––––––––––––––>   then
<––––––––––––––––––––––––––––––––––––––––––––––––––––––––––>
#1 ^ ¡^¡^¡ ¡^^   ^ ¡^¡^¡ ¡^^    ^ ¡^¡^¡ ¡^^   ^ ¡^¡ ^
E--3-33333\222---3-33333/555—---3-33333\222---3-333/5--------------------------
H--1-11111-111---1-11111-333-—--1-11111-111---1-111-3--------------------------
G--2-22222-222---2-22222-222—---2-22222-222---2-222-2--------------------------
D--2-22222-222---2-22222-000-—--2-22222-222---2-222-0--------------------------
A--0-00000-000---0-00000--------0-00000-000---0-000----------------------------
E------------------------------------------------------------------------------


#2 Second time enters elec. Guitar:
E—-7\8^7~--------7^8^7-5^7^55^7^5~-----(3^5^)3---------------------------------
H---------------------------------------------53-------------------------------
G-----------------------------------------------42-----------------------------
D-------------------------------------------------54~\0------------------------
A------------------------------------------------------------------------------
E------------------------------------------------------------------------------

For the verse play the same chords like in intro:

1st verse:
Good-bye little angel, so young and so sweet
So long little angel, taken so young from the street

           Am G D                           Am G D
Now you’re gone, all the world can feel the pain
Like a light went out somewhere…

2nd verse:
Good-bye little angel, it’s so hard to understand
What makes somebody do that? What makes that kind of a man?

               Am G D                            Am G D
But now you’re gone and things will never be the same
                             Am G D
I feel your tears when it rains
                             Am G D
And though I try I can’t explain
Where’s the sense in it all?

#3
E------------------------------------------------------------------------------
H------------------------------------------------------------------------------
G---------5---------7---------5------------------------------------------------
D—-5\7-7--5--5-7-7--7--5-7-7--5--77777-----------------------------------------
A—-5\7-7--3--5-7-7--5--5-7-7--3--77777-----------------------------------------
E—-3\5-5-----3\5-5-----3\5-5-----55555-----------------------------------------


We cover our eyes cover our eyes cover our eyes
Cos we don’t wanna see it
We hope it’s a lie hope it’s a lie hope it’s a lie
Cos our world isn’t like this…
[ Tab from: http://www.guitartabs.cc/tabs/t/thunder/it_happened_in_this_town_tab.html ]
         G                               D
It’s too random to believe it, how could anyone concieve it?
     Am          C                D       (D Dsus4 D)
It‘s so sad, but it happened in this town
            G                              D 
There’s no words of consolation, there’s no reasoned explanation
         Am           C                D
Just the fact that it happened in this town

E------------------------------------------------------------------------------
H------------------------------------------------------------------------------
G---------5---------7---------5------------------------------------------------
D—-5\7-7--5--5-7-7--7--5-7-7--5--77777-----------------------------------------
A—-5\7-7--3--5-7-7--5--5-7-7--3--77777-----------------------------------------
E—-3\5-5-----3\5-5-----3\5-5-----55555-----------------------------------------

SOLO:  Am,G,D

3st verse:
Good-bye little angel, so young and so sweet
So long little angel, taken so young from the street

           Am G D                         Am G D
Now you’re gone, and things will never be the same
                            Am G D
I feel your tears when it rains
                             Am G D
And though I try I can’t explain
Where’s the sense in it all?



E------------------------------------------------------------------------------
H------------------------------------------------------------------------------
G---------5---------7---------5------------------------------------------------
D—-5\7-7--5--5-7-7--7--5-7-7--5--77777-----------------------------------------
A—-5\7-7--3--5-7-7--5--5-7-7--3--77777-----------------------------------------
E—-3\5-5-----3\5-5-----3\5-5-----55555-----------------------------------------


We cover our eyes cover our eyes cover our eyes
Cos we don’t wanna see it
We hope it’s a lie hope it’s a lie hope it’s a lie
Cos our world isn’t like this…


G                               D
How could anybody do it?, there’s no rhyme or reason to it.
     Am          C                D        (D Dsus4 D)
It‘s so sad, but it happened in this town
 
           G                               D
There’s no words of consolation, there’s no reasoned explanation.
         Am           C                D      G  D Am
Just the fact that it happened in this town.
          C                D     G  D  Am
It really happened in this town.
                    C                D
It‘s so sad, but it happened in this town.


4st verse:
Good-bye little angel, so young and so sweet
So long little angel, taken so young from the street…

I'll come back with the solo...
So long little angel…
Comments