Thunder - Dirty Love Chords & Tabs

 

Dirty Love Chords & Tabs

Thunder Chords & Tabs

Version: 1 Type: Tab 0 ratings
1 star 2 stars 3 stars 4 stars 5 stars
comments

Dirty Love Tab

-------------------------------------------------------------------------------
			     Dirty love - Thunder
-------------------------------------------------------------------------------
Tabbed by: Richard Keeling
Email: keeling00@hotmail.com

Tuning: standard
|---------------------------------------------------------------------------|
B|--------------------------------------------------------------------------|
G|--------------------------------------------------------------------------|
D|---9x--9-------9x---9/------9x---9----9x---9------------------------------|
A|---7x--7-------7x---7/------7x---7----7x---7------------------------------|
E|----------------------------------------------3-2-0-----------------------|
[ Tab from: http://www.guitartabs.cc/tabs/t/thunder/dirty_love_tab.html ]
e|---------------------------------------------------------------------------|
B|---------------------------8--7--------------------------------------------|
G|-----------------7----9----7--7--9-----------------------------------------|
D|---9-9x--9------7----7----------7---9-9-9-9-9-9---2-2-------2-4-----------|
A|---7-7x--7--------------------------7-7-7-7-7-7---0-0---2\4---------------|
E|---------------------------------------------------------------------------|

e|---------------------------------------------------------------------------|
B|---------------------------------------------------------------------------|
G|---------------------------------------------------------------------------|
D|--7-7-7-7-7-7--4-4----------9-9-9-9-9-9--2-2-------2-4----7-7-7-7-7-7--4-4-|
A|--5-5-5-5-5-5--2-2----------7-7-7-7-7-7--0-0---2\4--------5-5-5-5-5-5--2-2-|
E|-------------------3-2-0---------------------------------------------------|
Comments