Throwing Muses - Backroad Chords & Tabs

 

Backroad Chords & Tabs

Throwing Muses Chords & Tabs

Version: 1 Type: Tab 0 ratings
1 star 2 stars 3 stars 4 stars 5 stars
comments

Backroad Tab

   
#----------------------------------PLEASE NOTE---------------------------------#
#This file is the author's own work and represents their interpretation of the #
#song. You may only use this file for private study, scholarship, or research. #
#------------------------------------------------------------------------------##
BACKROAD by Kristin Hersh (Throwing Muses)

transcribed by Edmond Hum 

Define Chords:(for verse)

       B        BaddA        E
E--------------------------------------------------------------
B------0---------0---------------------------------------------
G------4---------4-----------1---------------------------------
D------4---------4-----------2---------------------------------
A------2---------0-----------2---------------------------------
E--------------------------------------------------------------


Define Chords:(For Chorus) - use regular barre chord fingerings

       A      F     B      D       C#
[ Tab from: http://www.guitartabs.cc/tabs/t/throwing_muses/backroad_tab.html ]
E------5------1-----7------10-------9------------------------------
B------5------1-----7------10-------9------------------------------
G------6------2-----8------11------10------------------------------
D------7------3-----9------12------11------------------------------
A------7------3-----9------12------11------------------------------
E------5------1-----7------10-------9------------------------------


Define fingerpicking pattern:(for verse)

E------------------------------------------------------------------
B------------------------------------------------------------------
G-----4-----4---------4-----4--------------------------------------
D-------4-----4---------4-----4------------------------------------
A---2-----2-----0---------0-----0--2-------------------------------
E------------------------------------------------------------------



---start---

Intro:

E-------------------------------------
B-------------------------------------
G-------------------------------------
D-------------------------------------
A---0-2-----2-5-----5-4-0-2-----------
E-------------------------------------


B BaddA
B BaddA

Verse:

   B
   One two three four
       BaddA                B                BaddA
   How many, many people outside your door?
   B F7
Comments