Throwdown - Trust Chords & Tabs

 

Trust Chords & Tabs

Throwdown Chords & Tabs

Version: 1 Type: Tab 0 ratings
1 star 2 stars 3 stars 4 stars 5 stars
comments

Trust Tab

throwdown
trust


Tuning: CGCFAD  

Key
- = Palm Mute
b = Bend Note
[ Tab from: http://www.guitartabs.cc/tabs/t/throwdown/trust_tab.html ]
D|------------------------------------------------|
A|------------------------------------------------|
F|------------------------------------------------|
C|---6-6-6----6-6-6----6-6-6----------------------|
G|-0-4-4-4--0-4-4-4--0-4-4-4--0-0-----------------|
C|-0--------0--------0--------0-0-----------------|
   -        -        -        - -
D|----------------------------------------------------------||---------| 
A|----------------------------------------------------------||---------|
F|----------------------------------------------------------||---------| 
C|-0--0--3-4-1---0--0--3-4-1---0--0--3-4-1----6-6-6---6-6-6-||-0-0-0-0-|
G|-0--0--3-4-1---0--0--3-4-1---0--0--3-4-1--0-4-4-4-0-4-4-4-||-0-0-0-0-|
C|-0--0--3-4-1---0--0--3-4-1---0--0--3-4-1--0-------0-------||-0-0-0-0-|
   -  -          -  -          -  -         -       -          - - - -
D|----------------------------------------------------------------------|
A|----------------------------------------------------------------------|
F|----------------x3---------------------------x3-----------------------|
C|-0-0-0--------------------------0-0-0---------------------------------|
G|-0-0-0-3-4-3-1-----7-7-7-3-3-3--0-0-0-3-4-3-1------7-7-7-3-3-3--------|
C|-0-0-0-3-4-3-1-----7-7-7-3-3-3--0-0-0-3-4-3-1------7-7-7-3-3-3--------|
         - - - -     Heavy Muting      - - - - 
D|------------------------------------------------|
A|------------------------------------------------|
F|-6-6-6-6-10101010----3-3-3-3-3-3-3--------------|
C|-4-4-4-4--8-8-8-8--0-1-1-1-1-1-1-1--------------|
G|-4-4-4-4--8-8-8-8--0-1-1-1-1-1-1-1--------------|
C|-4-4-4-4--8-8-8-8--0-1-1-1-1-1-1-1--------------|

D|----------------------------------------------------------|
A|----------------------------------------------------------|
F|----------------------------------------------------------|
C|-0--0--3-4-1---0--0--3-4-1---0--0--3-4-1----6-6-6---6-6-6-|
G|-0--0--3-4-1---0--0--3-4-1---0--0--3-4-1--0-4-4-4-0-4-4-4-|
C|-0--0--3-4-1---0--0--3-4-1---0--0--3-4-1--0-------0-------|
   -  -          -  -          -  -         -       -
D|-----------------------------------------|
A|-----------------------------------------|
F|-----------------------------------------|
C|-6-6-6-6-0-0-0-0--6-6-6-6-7-6-4-0-0-0-0--|
G|-4-4-4-4-0-0-0-0--4-4-4-4-5-4-2-0-0-0-0--|
C|---------0-0-0-0----------------0-0-0-0--|

D|------------------------------------------------------|
A|------------------------------------------------------|
F|--------2-2-2-2-2-2-----------------------------------|
C|6-6-6-6-2-2-2-2-2-2-6-6-6-6-7-6-4-4-4-0-0-0-0--0-0-0--|
G|4-4-4-4-0-0-0-0-0-0-4-4-4-4-5-4-2-2-2-0-0-0-0--0-0-0--|
C|--------------------------------------0-0-0-0--0-0-0--|
                                                 - - -
D|------------------------|
A|------------------------|
F|------------------------|
C|------------------------|
G|-4-2-1-2b-1-2-4---------| <-- unsure
C|------------------------|

D|-----------------------------------------------------|
A|-----------------------------------------------------|
F|-----------------------------------------------------|
C|-0-1-1-0-1-0-1-4-4-4-4--| 
G|-0-1-1-0-1-0-1-4-4-4-4--|
C|-0-1-1-0-1-0-1-4-4-4-4--|  

This Riff all the way to the end, slows right down on the breakdown
Comments