Throwdown - Raise Your Fist Chords & Tabs

 

Raise Your Fist Chords & Tabs

Throwdown Chords & Tabs

Version: 1 Type: Tab 1 rating
1 star 2 stars 3 stars 4 stars 5 stars
comments

Raise Your Fist Tab

   
Raise Your Fist by Throwdown
Tabbed by Jason

Some parts or this song were tough to figure out, like the first riff. It's 
hard to hear clearly over the screaming but this seems right. Also, in the 
high pitch parts improvise a little (I didn't tab it exactly) just remember
to let all the notes ring.

Tuning Drop B (B-Gb-B-E-Ab-Db)

|-----------------|-----------------|-------11----------11-11-|
|-----------------|-----------------|-15-15----15-15-15-------|
|-----------------|-----------------|-------------------------|
|-----------------|-----------------|-------------------------|
|-0-4-3-0-1-4-3-4-|-0-0-0-0-0-0-0-0-|-------------------------|
|-0-4-3-0-1-4-3-4-|-0-0-0-0-0-0-0-0-|-------------------------|
                   pm. . . . . . . . 

|---------------------|------------------|
|---------------------|----3-3-3-3-3-3-3-|
|---------------------|--6---------------|
|---------------------|------------------|
|-0-0-0-0-0-0-1-0-4-1-|------------------|
|-0-0-0-0-0-0-1-0-4-1-|------------------|
pm. . . . . . . . . .
[ Tab from: http://www.guitartabs.cc/tabs/t/throwdown/raise_your_fist_tab.html ]
|-----------------|--------------------|-------------------------|
|-----------------|--------------------|-----------------------3-|
|-----------------|-8/7-7--10/8-8-(11)-|-----------------------6-|
|-----------------|---------------(10)-|-------------------------|
|-----------------|-6/5-5--8/-6-6-(9)--|-4--1--0-1-0-1--0--x-x---|
|-4-1-4-1-0-1-0-1-|--------------------|-4--1--0-1-0-1--0--x-x---|
                                   ^(last x only)
|---------------|--------------------------|---------|----------------------------|
|---------------|--------------------------|---------|----------------------------|
|---------------|--------------------------|---------|----------------------------|
|---------------|-4-----1-----0----0-------|---------|0---------0---0-------------|
|-4--1--0-1-0-1-|-4-4-4-1-1-1-0----0----/5-|-0-0-0-0-|0-0-0-0-0-0-0-0-0-0-0-0-0-0-|
|-4--1--0-1-0-1-|-4-4-4-1-1-1-0----0-------|-0-0-0-0-|0-0-0-0-0-0-0-0-0-0-0-0-0-0-|
                pm  . .   . .                . . . . 

|---------------------------|----------------------------------------|
|---------------------------|----------------------------------------|
|---------------------------|----------------------------------------|
|---------------------------|----------------------------------------|
|-4-4--4--4--4-1-1--5--5--5-|-4-4--4---1-1--1-1-1-1--1-5-5--5-5-5--5-|
|-4-4--4--4--4-1-1--5--5--5-|-4-4--4---1-1--1-1-1-1--1-5-5--5-5-5--5-|

Riffs are in order that they are played. Figure out the song structure yourself.
Send questions and comments to JayCarnagex13@aol.com
Comments