Throwdown - Burn Chords & Tabs

 

Burn Chords & Tabs

Throwdown Chords & Tabs

Version: 1 Type: Tab 0 ratings
1 star 2 stars 3 stars 4 stars 5 stars
comments

Burn Tab

   
----------------------------------------------------------
		BURN - Throwdown
----------------------------------------------------------
Tabbed by: outlawman1277	
Email: outlawman1277@aol.com

Tuning: (low to high) DADGBe
[ Tab from: http://www.guitartabs.cc/tabs/t/throwdown/burn_tab.html ]
e|--------------------------------------------|
B|--------------------------------------------|
G|--------------------------------------------|
D|--------------------------------------------|
A|--------------------------------------------|
E|--0--0-0-0-0-0-0-0-0-0-0-6-6-5-5-3p0--------|x 3
 On the 4th time
e|-----------------------------|
B|-----------------------------|
G|-----------------------------|
D|--------------------------1-1|
A|--------------------------1-1|
E|--0--0-0-0-0-0-0-0-0-0-0--1-1| x 1

e|--------------------------------|
B|--------------------------------|
G|--------------------------------|
D|--------------------------------|
A|-0----------------------6--5--4-|
E|-0--0-0-0-0-0-0-0-0-0-0-6--5--4-|

Ya, well that's just the intro. I'm working on the rest. 
Throwdown songs aren't hard so ill be updating the full 
song soon.

| /  slide up
| \  slide down
| h  hammer-on
| p  pull-off
| ~  vibrato
| +  harmonic
| x  Mute note
============================================================
Comments