Throne Of Ahaz - Nifelheim Chords & Tabs

 

Nifelheim Chords & Tabs

Throne Of Ahaz Chords & Tabs

Version: 1 Type: Tab 0 ratings
1 star 2 stars 3 stars 4 stars 5 stars
comments

Nifelheim Tab

   
"NIFELHEIM"
THRONE OF AHAZ
Transcribed by Hrothgar
E-Mail: axelegend@hotmail.com
Homepage: http://www.fortunecity.com/tinpan/chemical/286/

Hereís Throne Of Ahazí "NIFELHEIM". I know this song from the
compilation-album BLACKEND, vol.I. I donít know where else you can
find it. I didnít pay any attention to the timing, so youíll have to
listen to the song to get that right.

TUNE DOWN Ĺ STEP (To D#)

RIFF A
-----------------------------------||
-----------------------------------||
-----------------------------------||
-2-2-2-2-5-5-5-5-4-4-4-4-3-3-3-555-||
-2-2-2-2-5-5-5-5-4-4-4-4-3-3-3-555-||
-0-0-0-0-3-3-3-3-2-2-2-2-1-1-1-333-||

RIFF B
-------------------------------------------------||
-------------------------------------------------||
-------------------------------------------------||
-2-----2-----5-----5-----4-----4-----3-----3-555-||
-2-----2-----5-----5-----4-----4-----3-----3-555-||
-0-0-0-0-0-0-3-3-3-3-3-3-2-2-2-2-2-2-1-1-1-1-333-||
   PM-|  PM-|  PM-|  PM-|  PM-|  PM-|  PM-|

RIFF C
---------------------------------||
---------------------------------||
---------------------------------||
-2-2-2-2-5-5-5-5-2-2-2-2-9-9-7-7-||
-2-2-2-2-5-5-5-5-2-2-2-2-9-9-7-7-||
-0-0-0-0-3-3-3-3-0-0-0-0-7-7-5-5-||
[ Tab from: http://www.guitartabs.cc/tabs/t/throne_of_ahaz/nifelheim_tab.html ]
RIFF D
-----------------------|---------------------||
-----------------------|---------------------||
---------4\5-4/3-3\4-2-|---------------------||
-2-4\5-4-4\5-4/3-3\4-2-|-2-4\5-4-5-7-5-4-5-4-||
-2-4\5-4-2\3-2/1-1\2-0-|-2-4\5-4-5-7-5-4-5-4-||
-0-2\3-2---------------|-0-2\3-2-3-5-3-2-3-2-||

RIFF E
-----------------------------------------||
-----------------------------------------||
-----------------------------------------||
-6-6-6-6-6-6-6-6-7-8-8-7-7-7-7-8-8-9-9-8-||
-6-6-6-6-6-6-6-6-7-8-8-7-7-7-7-8-8-9-9-8-||
-4-4-4-4-4-4-4-4-5-6-6-5-5-5-5-6-6-7-7-6-||

RIFF F
-------------------------||
-------------------------||
-------------------------||
-6-6-6-6-6-7-4-4-4-4-4-7-||
-6-6-6-6-6-7-4-4-4-4-4-7-||
-4-4-4-4-4-5-2-2-2-2-2-5-||

FILL 1
---------------------||
---------------------||
-----------------(4)-||
-6-7-4-7-6-7-4-7-(4)-||
-6-7-4-7-6-7-4-7-(2)-||
-4-5-2-5-4-5-2-5-----||

RIFF G
----------|------------||
----------|------------||
----------|------------||
-4---9-8--|------------||
-2---7-6--|-5---12-11--||
-^^^^^^^^-|-3---10-9---||
            ^^^^^^^^^^

SONG STRUCTURE:

INTRO	RIFF A (2x)
	RIFF B (2x)
	RIFF A (2x)
VERSE	RIFF C (2x)
INT.	RIFF D (6x)
	RIFF B (2x)
	RIFF A (2x)
VERSE	RIFF C (2x)
INT.	RIFF E (6x)
	RIFF F (10x)
	FILL 1 (1x)
	RIFF G (1x)
VERSE	RIFF G	(Repeat and fade out)

TABLATURE EXPLANATION:

\ = slide
/ = slide
^ = picked fast
PM = Palm Muted
INT. = Interlude


Tabbed by HROTHGAR
Comments