Thrills - Whatever Happened To Corey Haim Chords & Tabs

 

Whatever Happened To Corey Haim Chords & Tabs

Thrills Chords & Tabs

Version: 1 Type: Bass Tab

Whatever Happened To Corey Haim Bass Tab

INTRO/VERSE
G---------------------------------------------|
D-11-1---11-1----55-5---55-5-5-33-3---33-3----|
A-----1-3----1-3-----6-8----6------5-6----5-6-|
E---------------------------------------------|

G--------------------------------------|
D---/88-8----88-8----88-8----88-8------|
A--------8-10----7-10----8-10----8-10--|
E--------------------------------------|
[ Tab from: http://www.guitartabs.cc/tabs/t/thrills/whatever_happened_to_corey_haim_btab.html ]
CHORUS
G-------------------------------*----------------|
D-------------------------------*----------------|
A-------------------------------*-----33---------|
E-6-66---6-66---6-66---6-66-6-6-*-4444--44444444-|

G----------------------------*
D----------------------------*
A-----------------33333333---* BACK TO STARS
E-3333333333333333-----------*


Thats more or less it! Any Questions ed999@hotmail.com