Thrills - Big Sur Chords & Tabs

 

Big Sur Chords & Tabs

Thrills Chords & Tabs

Version: 1 Type: Bass Tab 0 ratings
1 star 2 stars 3 stars 4 stars 5 stars
comments

Big Sur Bass Tab

   
Chords:   Dmadd9 - x5325x
          Am/E   - xx2210
          D7sus4 - xx0210

Intro + After Chorus 2
  Dmadd9            C                 Dmadd9            C
G|-----------------|-----------------|-----------------|-----------------|
D|-----------------|-----------------|-----------------|-----------------|
A|-5---------------|-3---------------|-5---------------|-3----------7--7-|
E|-----------------|-----------------|-----------------|-----------------|
[ Tab from: http://www.guitartabs.cc/tabs/t/thrills/big_sur_btab.html ]
Verse + Solo (2nd half only)
  F                 Am/E              D7sus4
G|-----------------|-----------------|-----------------|-----------------|
D|-----------------|-----------------|-----------------|-----------------|
A|-8---7---8---8---|-7------5--7--7--|-5---5------5----|-5---5------5--7-|
E|-----------------|-----------------|---------5-------|---------5-------|
  F                                   Am
G|-----------------|-----------------|-----------------|-----------------|
D|-----------------|----5--5----3--5-|-7----7----------|-7----7-----7--7-|
A|-8-------8----8--|-8---------------|----------7------|---------7-------|
E|-----------------|-----------------|-----------------|-----------------|
  F                 Am/E              D7sus4
G|-----------------|-----------------|-----------------|-----------------|
D|-----------------|-----------------|-----------------|-----------------|
A|-8---7---8--10-8-|-7---------7--7--|-5---5------5----|-5---5------5--7-|
E|-----------------|--------8--------|---------5-------|---------5-------|
  F                                   Am
G|-----------------|-----------------|-----------------|-----------------|
D|-----------------|----5--5----3--5-|-7----7----------|-7-7-5-5-3-3-2-2-|
A|-8-------8----8--|-8---------------|----------7------|-----------------|
E|-----------------|-----------------|-----------------|-----------------|

Chorus
  C                 F                 Dm                G
G|-----------------|-----------------|-----------------|-----------------|
D|-----------------|-3---3---3---3---|-----------------|-5-5-3-3-2-2-3-3-|
A|-3---3---3---3---|-----------------|-5---5---5---5---|-----------------|
E|-----------------|-----------------|-----------------|-----------------|
  Em                F                 Em                F
G|-----------------|-----------------|-----------------|-----------------|
D|-2------2-----2--|-3-----3----5--3-|-2------2-----2--|-3-3-2-2-0-0-2-2-|
A|-----------------|-----------------|-----------------|-----------------|
E|-----------------|-----------------|-----------------|-----------------|
  C                 F                 Dm                G
G|-----------------|-----------------|-----------------|-----------------|
D|-----------------|-3---3---3---3---|-----------------|-5-----5----7--9-|
A|-3---3---3---3---|-----------------|-5---5---5---5---|-----------------|
E|-----------------|-----------------|-----------------|-----------------|
  F                 G                 C                    
G|-----------------|-----------------|-----------------|-----------------|
D|-10---10---12----|-5-----5----7--9-|-10---12--10--12-|-10--------------|
A|-----------------|-----------------|-----------------|-----------------|
E|-----------------|-----------------|-----------------|-----------------|
Comments