Thrice - Where Idols Once Stood Chords & Tabs

 

Where Idols Once Stood Chords & Tabs

Thrice Chords & Tabs

Version: 2 Type: Tab 0 ratings
1 star 2 stars 3 stars 4 stars 5 stars
comments

Where Idols Once Stood Tab

   
Thrice - Where Idols Once Stood
email- dupsidolittle@hotmail.com

Tuning Drop C#: 1.5 steps down (C# G# C# F# A# D#) 

Key: 
/ slide up 
\ slide down 
. palm mute 
~ let ring 
u upstroke 
x muted note 
h hammer-on 
p pull-off 

Intro part 1 (x2) 
eb|--------------------------| 
Bb|--------------------------| 
Gb|--------------------------| 
Db|--------------------------| 
Ab|--------------------------| 
Eb|-000000000--00000--00000--| 

Intro Part 2 (x1) 
eb|---------------------------------------------| 
Bb|---------------------------------------------| 
Gb|-----------------------4~~~~~~~~-------------| 
Db|-5~~~~~~~~--4~~~~~~~~--5~~~~~~~~--4~~~~~~~~--| 
Ab|-7~~~~~~~~--5~~~~~~~~-------------5~~~~~~~~--| 
Eb|---------------------------------------------| 

Intro Part 3 (x1) 
eb|--------------------------| 
Bb|--------------------------| 
Gb|--------------------------| 
Db|-999999999--99999--99999--| 
Ab|-777777777--77777--77777--| 
Eb|--------------------------| 

Verse 1 (x4) "Our Idols Lay in Ruins..." 
eb|-------------------------------------------------------------------| 
Bb|-------------------------------------------------------------------| 
Gb|-------------------------------------------------------------------| 
Db|---------------------------------2~-2-2-2-2-2-2-2-222-2-2-2-2-2-2--| 
Ab|------9-----7-----5-----10-----9-2~-2-2-2-2-2-2-2-222-2-2-2-2-2-2--| 
Eb|--0-7---0-8---0-7---0-7----0-7---0~-0-0-0-0-0-0-0-000-0-0-0-0-0-0--| 
u . . . . . . ... . . . . . . 

Bridge (x1) (very slight distortion with flanger) "Still Believe..." 
eb|----------------A-little-feedback-her-and-there--------------------------
Bb|-------------------------------------------------------------------------
Gb|------------------------4~~~~~~~~----------------------------------------
Db|--5~~~~~~~~--4~~~~~~~~--5~~~~~~~~-4~~~~~~~~------------------------------
Ab|--7~~~~~~~~--5~~~~~~~~------------5~~~~~~~~------------------------------
Eb|------------------------------------------------------------------------ 

2nd Time (x1) "I've lived this way too long to turn back now" 
eb|----------------very-faint----------------------| 
Bb|------------------------------------------------| 
Gb|-------------------0------4~~~~~~~~-------------| 
Db|--5~~~~~~~~--4~4-4---4-0--5~~~~~~~~--4~~~~~~~~--| 
Ab|--7~~~~~~~~--5~----------------------5~~~~~~~~--| 
Eb|------------------------------------------------| 

Pre-verse (x1) 
eb|---------------------------| 
Bb|---------------------------| 
Gb|---------------------------| 
Db|--999999999--99999--99999--| 
Ab|--777777777--77777--77777--| 
Eb|---------------------------| 

Verse 2 (x1) "Presuppositions Set in Stone" 
eb|-------------------------------------------------------------------| 
Bb|-------------------------------------------------------------------| 
Gb|-------------------------------------------------------------------| 
Db|---------------------------------2~-2-2-2-2-2-2-2-222-2-2-2-2-2-2--| 
Ab|------9-----7-----5-----10-----9-2~-2-2-2-2-2-2-2-222-2-2-2-2-2-2--| 
Eb|--0-7---0-8---0-7---0-7----0-7---0~-0-0-0-0-0-0-0-000-0-0-0-0-0-0--| 
u . . . . . . ... . . . . . . 

"This coffin sealed with my own Pride" 
eb|-----------------------------------------------------------------| 
Bb|-----------------------------------------------------------------| 
Gb|-----------------------------------------------------------------| 
Db|----------------------------------2---2---2---2---2---2---2---2--| 
Ab|------9-----7-----5-----10-----9--2---2---2---2---2---2---2---2--| 
Eb|--0-7---0-8---0-7---0-7----0-7----0---0---0---0---0---0---0---0--| 

"And Though it Seems the Sun Will Shine" 
eb|--------------------------------------------------------------| 
Bb|--------------------------------------------------------------| 
Gb|--------------------------------------------------------------| 
Db|-------------------------------------------9-------9-------9--| 
Ab|------9-----7-----5-----10-----9-----------7-------7-------7--| 
Eb|--0-7---0-8---0-7---0-7----0-7----00000000----0000----0000----| 
........ .... .... 

"I'll Draw The Shades and Stay Inside" 
eb|--------------------------------------| 
Bb|--------------------------------------| 
Gb|--------------------------------------| 
Db|-----------------------------------2--| 
Ab|------9-----7-----5-----10-----9---2--| 
Eb|--0-7---0-8---0-7---0-7----0-7-----0--| 
[ Tab from: http://www.guitartabs.cc/tabs/t/thrice/where_idols_once_stood_tab_ver_2.html ]
Fast Rythym Part (x2) 
eb|---------------------------------------------------------------------| 
Bb|---------------------------------------------------------------------| 
Gb|---------------------------------------------------------------------| 
Db|-------------------2---2---2---2---2---2---2-2--2-2-2----2-2--2-2-2--| 
Ab|-------------------2---2---2---2---2---2---2-2--2-2-2----2-2--2-2-2--| 
Eb|--000000000---0000-0---0---0---0---0---0---0-0--0-0-0--000-0--0-0-0--| 
......... .... . . . . . . . . . . . ... . . . . 

Next Part (x1) 
eb|-------------------------------------------------------------------------
Bb|-------------------------------------------------------------------------
Gb|---------------------------------/14-14--14-14-14--14-14-14--14-14-14--14
Db|--9---7---7h9-7---7h9-9-9-9-7-7----x--x---x--x--x---x--x--x---x--x--x---x
Ab|----5---5------------------------/12-12--12-12-12--12-12-12--12-12-12--12
Eb|------------------------------------------------------------------------- 
. . 

eb|---------------------------------| 
Bb|---------------------------------| 
Gb|-12~~~~~~~~~~~11-9~~~~~~~~-9--9--| 
Db|--x--------------x---------x--x--| 
Ab|-10~~~~~~~~~~~---7~~~~~~~~-7--7--| 
Eb|---------------------------------| 

Quick Guitar Lick (x10) 
eb|------------------------------------| 
Bb|----7-8p7---------7~~-7h8-10---8p7--| 
Gb|----------7p0-7h9------------7------| 
Db|--9---------------------------------| 
Ab|------------------------------------| 
Eb|------------------------------------| 

Screaming Part (x1) 
eb|-0000000000000000000000000000000000000000000000000000000000000000--| 
Bb|-0000000000000000000000000000000000000000000000000000000000000000--| 
Gb|-4444444444444444444444444444444444444444444444444444444444444444--| 
Db|-xxxxxxxxxxxxxxxxxxxxxxxxxxxxxxxxxxxxxxxxxxxxxxxxxxxxxxxxxxxxxxxx--| 
Ab|-2222222222222222222222222222222222222222222222222222222222222222--| 
Eb|-------------------------------------------------------------------| 

Bridge 2 (x1) "Some Things Are Better Left Unsaid" 
eb|-------------------0-------------------0-------------------0--| 
Bb|-------------------0-------------------0-------------------0--| 
Gb|--4/5-5-5-5-4---------5/7-7-7-7-5---------4/5-5-5-5-4---------| 
Db|--x-x-x-x-x-x-2--2----x-x-x-x-x-x-2--2----x-x-x-x-x-x-2--2----| 
Ab|--2/3-3-3-3-2-2--2----3/5-5-5-5-3-2--2----2/3-3-3-3-2-2--2----| 
Eb|--------------0--0----------------0--0----------------0--0----| 
. . . 

"Some Things Are Better Left Unsaid" 
eb|-----------------------------------------| 
Bb|-----------------------------------------| 
Gb|--9-9-9-9-9-9-9/11-11-11-11-11-11-11-11--| 
Db|--x-x-x-x-x-x-x--x--x--x--x--x--x--x--x--| 
Ab|--7-7-7-7-7-7-7/-9--9--9--9--9--9--9--9--| 
Eb|-----------------------------------------| 

Interlude (x2) "As Long as we can keep it in textbooks, then we'll be" 
eb|--------------------------------------------------------------------| 
Bb|--------------------------------------------------------------------| 
Gb|--1212121212121212121212121212121211111111111111111111111111111111--| 
Db|---x-x-x-x-x-x-x-x-x-x-x-x-x-x-x-x-x-x-x-x-x-x-x-x-x-x-x-x-x-x-x-x--| 
Ab|--10101010101010101010101010101010-9-9-9-9-9-9-9-9-9-9-9-9-9-9-9-9--| 
Eb|--------------------------------------------------------------------| 

"Untouchable" "Untouchable" 
eb|--------------------------------------------------------------------| 
Bb|--------------------------------------------------------------------| 
Gb|--1616161616161616161616161616161614141414141414141414141414141414--| 
Db|---x-x-x-x-x-x-x-x-x-x-x-x-x-x-x-x-x-x-x-x-x-x-x-x-x-x-x-x-x-x-x-x--| 
Ab|--1414141414141414141414141414141412121212121212121212121212121212--| 
Eb|--------------------------------------------------------------------| 

eb|--------------------------------------------------------------------| 
Bb|--------------------------------------------------------------------| 
Gb|--12~~~~~~~~~~~~~~~~~~~~~~~~~~~~~~11~~~~~~~~~~~~~~~~~~~~~~~~~~~~~~--| 
Db|---x-------------------------------x--------------------------------| 
Ab|--10~~~~~~~~~~~~~~~~~~~~~~~~~~~~~~-9~~~~~~~~~~~~~~~~~~~~~~~~~~~~~~--| 
Eb|--------------------------------------------------------------------| 

eb|--------------------------------------------------------------------| 
Bb|--------------------------------------------------------------------| 
Gb|--12~~~~~~~~~~~~~12/14--12-12-11/12\11--9~~~~~~~~---5--4-4--5--/12--| 
Db|---x--------------x--x---x--x--x--x--x--x-----------x--x-x--x----x--| 
Ab|--10~~~~~~~~~~~~~10/12--10-10--9/10\-9--7~~~~~~~~---3--2-2--3--/10--| 
Eb|--------------------------------------------------------------------|
Comments