Thrice - Where Idols Once Stood Chords & Tabs

 

Where Idols Once Stood Chords & Tabs

Thrice Chords & Tabs

Version: 1 Type: Tab 0 ratings
1 star 2 stars 3 stars 4 stars 5 stars
comments

Where Idols Once Stood Tab

   
Song: Where Idols Once Stood
Artist: Thrice
Album: Illusion of Safety
Tabbed by: Christian / silent_warrior_@hotmail.com

PM - Palm mute
/ - Slide up
\ - Slide down


Tuning: Half a step down (Eb Ab Db Gb Bb Eb)


Intro
|----------------------|
|----------------------|
|----------------------|
|-22222222--2222--2222-|
|-22222222--2222--2222-|
|-00000000--0000--0000-|
PM--------  ----  ----


Verse
|-------------------------------------------------------------|
|-------------------------------------------------------------|
|-------------------------------------------------------------|
|-----------------------------------2---2-2-2-2-222-2-2-2-2-2-|
|-----9-----7-----5-----10-----9----2---2-2-2-2-222-2-2-2-2-2-|
|-0-7---0-8---0-7---0-8----0-7---7--0---0-0-0-0-000-0-0-0-0-0-|
PM                                      - - - - --- - - - - -


|----------|
|----------|
|-12----11-|
|----------|
|-10-----9-|
|----------|


|----------------------|
|----------------------|
|----------------------|
|-22222222--2222--2222-|
|-22222222--2222--2222-|
|-00000000--0000--0000-|


|-------------------------------------------------------------|
|-------------------------------------------------------------|
|-------------------------------------------------------------|
|-----------------------------------2---2-2-2-2-222-2-2-2-2-2-|
|-----9-----7-----5-----10-----9----2---2-2-2-2-222-2-2-2-2-2-|
|-0-7---0-8---0-7---0-8----0-7---7--0---0-0-0-0-000-0-0-0-0-0-|
PM                                      - - - - --- - - - - -


|------------------------------------------------------------------------------------------------------------|
|------------------------------------------------------------------------------------------------------------|
|------------------------------------------------------------------------------------------------------------|
|-2--2--2--2------------------------------------222-222-2--222-2-222-2-2-------------------------------------|
|-2--2--2--2------9-----7-----5-----10-----9----222-222-2--222-2-222-2-2------9-----7-----5-----10-----9-----|
|-0--0--0--0--0-7---0-8---0-7---0-8----0-7---7--000-000-0--000-0-000-0-0--0-7---0-8---0-7---0-8----0-7---7-0-|
PM                                              --- ---    ---   ---  

[ Tab from: http://www.guitartabs.cc/tabs/t/thrice/where_idols_once_stood_tab.html ]
Breakdown
|----------------------------------------------------|
|----------------------------------------------------|
|----------------------------------------------------|
|-22222222--222--2-2-2-2-2-2--2-2--2-2-2--222--2-2-2-|
|-22222222--222--2-2-2-2-2-2--2-2--2-2-2--222--2-2-2-|
|-00000000--000--0-0-0-0-0-0--0-0--0-0-0--000--0-0-0-|
  --------  ---  - - - - - -  - -  - - -  ---  - - -


|-----------------------------------------------------------------------------------------------------|
|-----------------------------------------------------------------------------------------------------|
|-12-11--11/12\11--11-12-12-12-12-12-11---14-14--14-14-14--14-14-14--14-14-14--14-12--11---9----11-11-|
|-----------------------------------------------------------------------------------------------------|
|-10--9---9/10-\9---9-10-10-10-10-10--9---12-12--12-12-12--12-12-12--12-12-12--12-10---9---7-----9--9-|
|-----------------------------------------------------------------------------------------------------|


|---------------------------------|
|-0-7-8-7-------5-7--0-7-8-7-10-8-|
|---------9-7-0-------------------|
|---------------------------------|
|---------------------------------|
|---------------------------------|


|---------------------------------|
|---------------------------------|
|-9-9-9-9-9-9-9-9-9-9-9-9-9-9-9-9-|
|---------------------------------|
|-7-7-7-7-7-7-7-7-7-7-7-7-7-7-7-7-|
|---------------------------------|


|--------------------0---------------------0-|
|--------------------0---------------------0-|
|-4/5--5-5-5-5-------0--5/7--7-7-7-7-------0-|
|-4/5--5-5-5-5-2--2-----5/7--7-7-7-7-2--2----|
|-2/3--3-3-3-3-2--2-----3/5--5-5-5-5-2--2----|
|--------------0--0------------------0--0----|


|-----------------------------|
|-----------------------------|
|-7-7-7-7-9-9-9-9-11-11-11-11-|
|-----------------------------|
|-5-5-5-5-7-7-7-7--9--9--9--9-|
|-----------------------------|


|-----------------------------------------------------------------------------------------------------------------------|
|-----------------------------------------------------------------------------------------------------------------------|
|14-14-14-14-14-14-14-14-14-14-11-11-11-11-11-11-11-11-11-11-16-16-16-16-16-16-16-16-16-16-14-14-14-14-14-14-14-14-14-14|
|-----------------------------------------------------------------------------------------------------------------------|
|12-12-12-12-12-12-12-12-12-12--9--9--9--9--9--9--9--9--9--9-14-14-14-14-14-14-14-14-14-14-12-12-12-12-12-12-12-12-12-12|
|-----------------------------------------------------------------------------------------------------------------------|


Outro
|------------------------------------------------------------|
|------------------------------------------------------------|
|-12--11---12--12/14--12-12-11/12\11--9---5--4--5--12--------|
|------------------------------------------------------------|
|-10---9---10--10/12--10-10--9/10\-9--7---3--2--3--10--------|
|------------------------------------------------------------|
Comments