Thrice - Under Par Chords & Tabs

 

Under Par Chords & Tabs

Thrice Chords & Tabs

Version: 1 Type: Tab 0 ratings
1 star 2 stars 3 stars 4 stars 5 stars
comments

Under Par Tab

GTR.1 (Intro)  All PM play twice
e|---------------------------------------------------------------------------|
B|---------------------------------------------------------------------------|
G|---------------------------------------------------------------------------|
D|---9---7---9--10--9--7---9---10---9---7---9---10---9---7---5---4---2-------|
A|-7---7---7--7---7--7---7---7----0---0---0---0----0---0---0---0---0---------|
E|---------------------------------------------------------------------------|

e|---------------------------------------------------------------------------|
B|---------------------------------------------------------------------------|
G|---------------------------------------------------------------------------|
D|---5---4---5---7---5---7---------------------------------------------------|
A|-3---3---3---5---5---5------10---9---10---10--9---7---6--------------------|
E|--------------------------7----7---7----7----7--7---7----------------------|

GTR.2 (Intro) Feedbak
e|---------------------------------------------------------------------------|
B|---------------------------------------------------------------------------|
G|---------------------------------------------------------------------------|
D|-2---2---------------------------------------------------------------------|
A|-----0---3/5/7-2-----------------------------------------------------------|
E|---------------------------------------------------------------------------|

GTR.1 		Play both at same time			GTR.2
e|---------------------------------------------------------------------------|
B|---------------------------------------------------------------------------|
G|---------------------------------------------------------------------------|
D|-9-7-----------------------------------------------------------------------|
A|-----10-9-----------------------------10-9---------------------------------|
E|-------------------------------------------12-10---------------------------|

Both GTRS.
e|---------------------------------------------------------------------------|
B|---------------------------------------------------------------------------|
G|-9-------9-9---------5-------5-5-------------------------------------------|
D|-9-9-9-9-9-9---------5-5-5-5-5-5---888-101010------------------------------|
A|-7-7-7-7-7-7--10-9---3-3-3-3-3-3---666-8-8-8-------------------------------|
E|---------------8-7---------------------------------------------------------|
     ....   			  ..... 			

e|---------------------------------------------------------------------------|
B|---------------------------------------------------------------------------|
G|-9-------9-9---------5-------5-(5)-----------------------------------------|
D|-9-9-9-9-9-9---------5-5-5-5-5-(5)---333-101010---2----9----x-x------------|
A|-7-7-7-7-7-7--10-8---3-3-3-3-3-(3)---111-8-8-8----2----7----x-x-x----------|
E|---------------8-6--------------------------------0----0----x-x------------|
     ....   			  .... 

BOTH GTRS. (Verse) "U SET THE BAR TO HIIIIIGH!" some PM listen to the cd
e|---------------------------------------------------------------------------|
B|---------------------------------------------------------------------------|
G|-------7-5-4---------------------------------------------------------------|
D|-2-4-5-7-5-4----2-4-5---7-9------------------------------------------------|
A|-2-4-5-5-3-2----2-4-5---5-7------------------------------------------------|
E|-0-2-3----------0-2-3------------------------------------------------------|

Gtr.2 "a shell u see so shallow but deep inside...."
e|---------------------------------------------------------------------------|
B|---------------------------------------------------------------------------|
G|---------------------------------------------------------------------------|
D|-----2---3^2-2-----4---5^4-4-----5---7^5-------7-5--4-5--------------------|
A|-3-3---3-------5-5---5-------7-7---7-----------7-5--4-5--------------------|
E|-----------------------------------------------5/3--2-3--------------------|
[ Tab from: http://www.guitartabs.cc/tabs/t/thrice/under_par_tab.html ]
e|---------------------------------------------------------------------------|
B|---------------------------------------------------------------------------|
G|---------------------------------------------------------------------------|
D|-----2---3^2-2-----4---5^4-4-----5---7^5-------8--4-5----------------------|
A|-3-3---3-------5-5---5-------7-7---7-----------8--4-5----------------------|
E|-----------------------------------------------6--2-3----------------------|

Both Gtrs. let each note ring for about 5sec. but on the 3rd chord hit 2x for 5sec.
e|---------------------------------------------------------------------------|
B|---------------------------------------------------------------------------|
G|-5-7---5-4-5---------------------------------------------------------------|
D|-5-7-7-5-4-5---------------------------------------------------------------|
A|-3-5-7-3-2-3---------------------------------------------------------------|
E|-----5---------------------------------------------------------------------|
	
CHORUS play 3xs
e|---------------------------------------------------------------------------| 
B|---------------------------------------------------------------------------| 
G|---------------------------------------------------------------------------| 
D|-5--5-5-5--5-5---9-7--5----------------------------------------------------| 
A|-7--7-7-7--7-7--10-9--7--9--5-7--7-7-7-7--7-7---9---9--9--9--9---9--9------| 
E|------------------------10--7-8--8-8-8-8--8-8--10--10-10-10-10--10-10------|

e|--------------------------------------------| 
B|--------------------------------------------| 
G|-----------------------------------------9--| 
D|-5--5-5-5--5-5---9-7--5---------------2--9--| 
A|-7--7-7-7--7-7--10-9--7--9--7-10----9-2--7--| 
E|------------------------10--5-8----10-0--0--| 
repeat Verse 
repeat Chorus

Breakdown Gtr.2 PM play each twice beside last two.
e|---------------------------------------------------------------------------|
B|---------------------------------------------------------------------------|
G|---------------------------------------------------------------------------|
D|-----9--------10--------7-------5-------4----------------------------------|
A|---7---7----7----7----5---5---3---3---2---2--------------------------------|
E|-0--------0---------0-------0-------0--------------------------------------|

Gtr.1  Come in on second time of brekdown
e|---------------------------------------------------------------------------| 
B|---------------------------------------------------------------------------| 
G|------------------------------------------------------------5~--------4~---| 
D|-2-2--------------2-2-----------------2-2--------------2-2-------2-2-------| 
A|-2-2--------------2-2-----------------2-2--------------2-2-------2-2-------| 
E|-0-0--------------0-0-----------------0-0--------------0-0-------0-0-------| 

Gtr.2 plays
e|---------------------------------------
B|---------------------------------------		
G|---------------------------------------		
D|-2-2----3--2-3-2-----2-----------------		
A|-2-2-------------3-----3-2-0-----------		
E|-0-0--0--------------------------------		

Both Gtr.play but then on second time Gtr.1 goes to below while gtr.2 plays this
e|-------------------------------------------------------| 
B|-------------------------------------------------------| 
G|--9-9--9-9--9-10-10--10--10--10-7-7--7-7--7-9-9--9-8-8-| 
D|-------------------------------------------------------| 
A|--7-7--7-7--7--8--8---8---8---8-5-5--5-5--5-7-7--7-6-6-| 
E|-------------------------------------------------------|

e|-------------------------------------------------------| 
B|-------------------------------------------------------| 
G|--9-9--9-9--9-10-10--10--10--10-7-7--7-7--7-5-5--5-4-4-| 
D|--9-9--9-9--9-10-10--10--10--10-7-7--7-7--7-5-5--5-4-4-| 
A|--7-7--7-7--7--8--8---8---8---8-5-5--5-5--5-3-3--3-2-2-| 
E|-------------------------------------------------------|  

End, before u do the harmonics get alittle feedbak then do it
e|-------------------------------------------| 
B|------------------------------**--7--------| 
G|------------------------------------5---9--| 
D|-5--5-5-5--5-5---9-7--5-----------------9--| 
A|-7--7-7-7--7-7--10-9--7--9--5-----------7--| 
E|------------------------10--7-----------0--| 

e|-------------------------------------------| 
B|-------------------------------------------| 
G|-------------------------------------------| 
D|-5--5-5-5--5-5---9-7--5-----------------2--| 
A|-7--7-7-7--7-7--10-9--7--9--5-10---12---2--| 
E|------------------------10--7-8----10---0--|
Comments