Thrice - Under A Killing Moon Chords & Tabs

 

Under A Killing Moon Chords & Tabs

Thrice Chords & Tabs

Version: 1 Type: Tab 0 ratings
1 star 2 stars 3 stars 4 stars 5 stars
comments

Under A Killing Moon Tab

   
Song: Under a Killing Moon
Artist: Thrice
Album: The Artist and the Ambulance
Tabbed by: Christian / silent_warrior_@hotmail.com

PM - Palm mute
\ - Slide down
/ - Slide up
h - Hammer on
p - Pull off


Tuning: C G C F A D


It's all in order. Just figure out the # of times to play each riff.


Intro/verse
|-----------------------------------------------------------|
|-----------------------------------------------------------|
|---------------------------------------------3-3-3-3/5-----|
|------------------7--------------------------3-3-3-3/5-----|
|--------------------8-7h8-8\-----------------1-1-1-1/3--8\-|
|-000-0-000-000-0--------------0-0-000-000-0----------------|
PM--- - --- --- -              - - --- --- -


|------------------------------------------------------------|
|------------------------------------------------------------|
|---------------------------------------------3-3-3-3/5--10--|
|------------------7-----------------------------------------|
|--------------------8-7h8-8\-----------------1-1-1-1/3---8\-|
|-000-0-000-000-0--------------0-0-000-000-0-----------------|
PM--- - --- --- -              - - --- --- -


|-----------------------------------------------------------------|
|-----------------------------------------------------------------|
|------------------14-10-9/10--10\-----------------3-3-3-3/5--10\-|
|-----------------------------------------------------------------|
|------------------12--8-7/-8---8\-----------------1-1-1-1/3---8\-|
|-000-0-000-000-0-------------------0-0-000-000-0-----------------|
PM--- - --- --- -                   - - --- --- -


Pre-chorus
|-------------------------|
|-------------------------|
|-------------------------|
|-8-8-8-8-8-8-8-8-8-8-8-8-|
|-8-8-8-8-8-8-8-8-8-8-8-8-|
|-8-8-8-8-8-8-8-8-8-8-8-8-|


|-----------------------------------------|
|-----------------------------------------|
|-7-7-7-7--5-5--7-------------------------|
|-7-7-7-7--5-5--7--------0h5h7p5--0h3h5p3-|
|-5-5-5-5--3-3--5-------------------------|
|-0-0-0-0--0-0--0--0-0-0------------------|
PM  - -


Pre-chorus
|-------------------------|
|-------------------------|
|-------------------------|
|-8-8-8-8-8-8-8-8-8-8-8-8-|
|-8-8-8-8-8-8-8-8-8-8-8-8-|
|-8-8-8-8-8-8-8-8-8-8-8-8-|


Chorus
|---------------------------------10-10-10---------------------------------------------|
|--------10-10-10-10-10-10-10-10-----------10-10-10-10-10-10-10------------------------|
|--------10-10-10-10-10-10-10-10-------------------------------------------------------|
|-0-0-0-----------------------------------------------------------5-5-5-5-5-5-5-5-5-5--|
|-0-0-0--------------------------------------------------------------------------------|
|-0-0-0--------------------------------------------------------------------------------|
PM                                                                - - - - -   - - - -


Fill
|----------------------------------|
|----------------------------------|
|----------------------------------|
|-----------------0h5h7p5--0h3h5p3-|
|----------------------------------|
|-0---1-0--3-3-3-------------------|
[ Tab from: http://www.guitartabs.cc/tabs/t/thrice/under_a_killing_moon_tab.html ]

Verse
|-----------------------------------------------------------------|
|-----------------------------------------------------------------|
|------------------14-10-9/10--10\-----------------3-3-3-3/5--10\-|
|-----------------------------------------------------------------|
|------------------12--8-7/-8---8\-----------------1-1-1-1/3---8\-|
|-000-0-000-000-0-------------------0-0-000-000-0-----------------|
PM--- - --- --- -                   - - --- --- -


Pre-chorus
|-------------------------------------------|
|-------------------------------------------|
|-10-10-10-10-10-10-\-9-9-9-9-/-12-12-12-12-|
|-------------------------------------------|
|--8--8--8--8--8--8-\-7-7-7-7-/-10-10-10-10-|
|-------------------------------------------|


Chorus
|---------------------------------10-10-10---------------------------------------------|
|--------10-10-10-10-10-10-10-10-----------10-10-10-10-10-10-10------------------------|
|--------10-10-10-10-10-10-10-10-------------------------------------------------------|
|-0-0-0-----------------------------------------------------------5-5-5-5-5-5-5-5-5-5--|
|-0-0-0--------------------------------------------------------------------------------|
|-0-0-0--------------------------------------------------------------------------------|
PM                                                                - - - - -   - - - -


Breakdown
|--------------------------------------------------------------------|
|--------------------------------------------------------------------|
|--------------------------------------------------------------------|
|-----------------0h5h7p5--0h3h5p3------------------0h5h7p5--0h3h5p3-|
|--------------------------------------------------------------------|
|-0---1-0--3-3-3--------------------0---1-0--2-2-2-------------------|


|------------------------------------------------------------------------------------|
|------------------------------------------------------------------------------------|
|-7-7-7-7--5-5--7---------------------------7-7-7-7--5-5--7--------------------------|
|-7-7-7-7--5-5--7---------0h5h7p5--0h3h5p3--7-7-7-7--5-5--7---------0h5h7p5--0h3h5p3-|
|-5-5-5-5--3-3--5---------------------------5-5-5-5--3-3--5--------------------------|
|-0-0-0-0--0-0--0--3-3-3--------------------0-0-0-0--0-0--0--2-2-2-------------------|
PM  - -                                       - -


|-----------------------------------------------------------|
|-----------------------------------------------------------|
|-7-7-7-7--5-5--7---------------------------7-7-7-7--5-5--7-|
|-7-7-7-7--5-5--7---------0h5h7p5--0h3h5p3--7-7-7-7--5-5--7-|
|-5-5-5-5--3-3--5---------------------------5-5-5-5--3-3--5-|
|-0-0-0-0--0-0--0--3-3-3--------------------0-0-0-0--0-0--0-|
PM  - -                                       - -


|----------------------------------------|
|----------------------------------------|
|----------------------------------------|
|-0-0-0--0-------0-0-0--0h5h7p5--0h3h5p3-|
|-0-0-0--0-------0-0-0-------------------|
|-0-0-0--0--1-0--0-0-0-------------------|
PM- - -          - - -


End
|---------|
|---------|
|---------|
|---------|
|---------|
|-0---1-0-|
Comments