Thrice - Trust Acoustic Chords & Tabs

 

Trust Acoustic Chords & Tabs

Thrice Chords & Tabs

Version: 1 Type: Tab 1 rating
1 star 2 stars 3 stars 4 stars 5 stars
comments

Trust Acoustic Tab

hey im brandon im 14 and ok well this song is played acoustic by thrice but is kinda 
so i made my own version so all you guys can say u made it up urself and sound cool haha.  
tell me what you guys think by commenting or emailing me at Socalnucca69@yahoo.com

Standard EADGBe tuning
Acoustic Guitar

KEY:
/ = slide
h = hammer on
p = pull off
* = Side note
~ = let ring
" " = parts of lyrics (so you know when to play certain things


Intro * I prefer to all the intro except for  \/\/\/\/ that part
-------------------------------------------------------|
-0-1-0-0-0--0-1-0-3-3--0-1-0-0-0--0-1-0-1-3-1-3/5-3-1--|
-2-2-2-0-2--2-2-2-2-2--2-2-2-0-2--2-2-2-2-2-2----------|
-2-2-2-2-2--2-2-2-2-2--2-2-2-2-2--2-2-2-2-2-2----------|
-0----------0----------0----------0--------------------|
-------------------------------------------------------|

-0-0000-0-0000-0-0000-0-0000-0-0000-0-0000-0-0000-0-0000-|
-1-1111-1-1111-0-0000-0-0000-1-1111-1-1111-3-3333-3-3333-|
-2-2222-2-2222-2-2222-2-2222-2-2222-2-2222-2-2222-2-2222-|
-3-3333-3-3333-3-3333-3-3333-3-3333-3-3333-3-3333-3-3333-|
---------------------------------------------------------|
-1-1111-1-1111-1-1111-1-1111-1-1111-1-1111-1-1111-1-1111-|

* you do not have to play the E-1 note it just harmonizes it better
but if u do use it play it with ur thumb

-------------------------------------------------------|
-0-1-0-0-0--0-1-0-3-3--0-1-0-0-0--0-1-0-1-3-1-3/5-3-1--|
-2-2-2-0-2--2-2-2-2-2--2-2-2-0-2--2-2-2-2-2-2----------|
-2-2-2-2-2--2-2-2-2-2--2-2-2-2-2--2-2-2-2-2-2----------|
-0----------0----------0----------0--------------------|
-------------------------------------------------------|

-0-0000-0-0000-0-0000-0-0000-0-0000-0-0000-0-0000-0-0000-|
-1-1111-1-1111-0-0000-0-0000-1-1111-1-1111-0-0000-0-0000-|
-2-2222-2-2222-2-2222-2-2222-2-2222-2-2222-2-2222-2-2222-|
-3-3333-3-3333-3-3333-3-3333-3-3333-3-3333-3-3333-3-3333-|
---------------------------------------------------------|
-1-1111-1-1111-1-1111-1-1111-1-1111-1-1111-1-1111-1-1111-|

---------------------------------------------------------|
-1-1111-1-1111-3-3333-3-3333-3-3333-3-3333-1-1111-1-1111-|
-2-2222-2-2222-2-2222-2-2222-2-2222-2-2222-2-2222-2-2222-|
-3-3333-3-3333-3-3333-3-3333-3-3333-3-3333-3-3333-3-3333-|
---------------------------------------------------------|
-1-1111-1-1111-1-1111-1-1111-1-1111-1-1111-1-1111-1-1111-|

(Verse 1)
--------------------------------------------------|
-1--1--0--0--1--1--0--0--1--1--0--0--1--1--3--3---|
--2--2--2--2--2--2--2--2--2--2--2--2--2--2--2--2--|
---2--2--2--2--2--2--2--2--3--3--3--3--3--3--3--3-|       X2
--------------------------------------------------|
--------------------------------------------------|


(Chorus) * use ryhthm used in real version
------------------------------------------|
-1-1111-00-1-1111-00-1-1111-00-1-1111-000-|
-2-2222-22-2-2222-22-2-2222-22-2-2222-220-|
-2-2222-22-2-2222-22-2-2222-22-2-2222-220-|
-0-0000-00-0-0000-00-0-0000-00-0-0000-00--|
------------------------------------------|
[ Tab from: http://www.guitartabs.cc/tabs/t/thrice/trust_acoustic_tab.html ]
                      "you...could..snap..my..neck"
-0-000-0-000-0-000-0-000-0-000-0-000-0-000-0-000-|
-1-111-1-111-1-111-1-111-1-111-1-111-1-111-1-111-|
-2-222-2-222-2-222-2-222-2-222-2-222-2-222-2-222-|
-3-333-3-333-3-333-3-333-3-333-3-333-3-333-3-333-|
-------------------------------------------------|
-1-111-1-111-1-111-1-111-1-111-1-111-1-111-1-111-|

------------------------------------------|
-1-1111-00-1-1111-00-1-1111-00-1-1111-000-|
-2-2222-22-2-2222-22-2-2222-22-2-2222-220-|
-2-2222-22-2-2222-22-2-2222-22-2-2222-220-|
-0-0000-00-0-0000-00-0-0000-00-0-0000-00--|
------------------------------------------|

 "any speed you drive...could be dangerous"
-0-000-0-000-0-000-0-000-0-000-0-000-0-000-0-000-|
-1-111-1-111-1-111-1-111-1-111-1-111-1-111-1-111-|
-2-222-2-222-2-222-2-222-2-222-2-222-2-222-2-222-|
-3-333-3-333-3-333-3-333-3-333-3-333-3-333-3-333-|
-------------------------------------------------|
-1-111-1-111-1-111-1-111-1-111-1-111-1-111-1-111-|

(Verse 2)
--------------------------------------------------|
-1--1--0--0--1--1--0--0--1--1--0--0--1--1--3--3---|
--2--2--2--2--2--2--2--2--2--2--2--2--2--2--2--2--|
---2--2--2--2--2--2--2--2--3--3--3--3--3--3--3--3-|
--------------------------------------------------|
--------------------------------------------------|

                                 "can mean...when this"
--------------------------------------333333333333-|
-1--1--0--0--1--1--0--0--1--1--0--0---333333333333-|
--2--2--2--2--2--2--2--2--2--2--2--2--000000000000-|
---2--2--2--2--2--2--2--2--3--3--3--3-000000000000-|
--------------------------------------222222222222-|
--------------------------------------333333333333-|

(outro)
"frame fails me....will I trust................. I Know"
-000000000000000000000000-0000000000000000000000-0-0-----|
-111111333333111111000000-1111110000003333331111-1-1-----|
-000000000000000000000000-2222222222222222222222-2-2-----|
-222222222222222222222222-2222222222222222222222-2-2-----|
-333333333333333333333333-0000000000000000000000-0-0-----|
---------------------------------------------------------|

"theres no..........but I know................will I"
-000000000000000000000000-000000000000000000000000-----|
-111111333333111111000000-111111000000333333111111-----|
-000000000000000000000000-222222222222222222222222-----|
-222222222222222222222222-222222222222222222222222-----|
-333333333333333333333333-000000000000000000000000-----|
-------------------------------------------------------|

"trust..you......will I trust....................through"
-000000000000000000000000-333333333333333333333333-----|
-111111111111111111111111-333333333333333333333333-----|
-222222222222222222222222-000000000000000000000000-----|
-333333333333333333333333-000000000000000000000000-----|
--------------------------222222222222222222222222-----|
-111111111111111111111111-333333333333333333333333-----|

                  "will I trust..you......cause I know"
-000000000000000000000000-000000000000000000000000-|
-111111000000111111310131-111111111111111111111111-|
-222222222222222222222222-222222222222222222222222-|
-222222222222222222222222-333333333333333333333333-|
-000000000000000000000000--------------------------|
--------------------------111111111111111111111111-|

"what a promise can.......do"
-333333333333333333333333-0~~~~~~~~~~~~~~~~~~~~~~~~
-333333333333333333333333-1~~~~~~~~~~~~~~~~~~~~~~~~
-000000000000000000000000-0~~~~~~~~~~~~~~~~~~~~~~~~
-000000000000000000000000-2~~~~~~~~~~~~~~~~~~~~~~~~
-222222222222222222222222-3~~~~~~~~~~~~~~~~~~~~~~~~
-333333333333333333333333--------------------------
Comments