Thrice - The Next Day Chords & Tabs

 

The Next Day Chords & Tabs

Thrice Chords & Tabs

Version: 1 Type: Tab 0 ratings
1 star 2 stars 3 stars 4 stars 5 stars
comments

The Next Day Tab

                                               
Thrice
"The Next Day"
                                                                        
----------------------|-----------------0----|----------------------|
----------------------|--0-------------------|----------------------|
------------4---------|-------4--------------|--4---------4---------|
-------5---------5----|------------5---------|-------5---------5----|
--7-------------------|----------------------|----------------------|
----------------------|----------------------|----------------------|


                                                                     
--0-------------------|----------------------|------------0---------|
-------0--------------|-----------------0----|----------------------|
------------4---------|------------4---------|--4--------------4----|
-----------------5----|-------5--------------|-------5--------------|
----------------------|--5-------------------|----------------------|
----------------------|----------------------|----------------------|

[ Tab from: http://www.guitartabs.cc/tabs/t/thrice/the_next_day_tab.html ]
                                                                     
-----------------0----|----------------------|----------------------|
----------------------|--0-------------------|-----------------0----|
-------4--------------|-------4--------------|-------4--------------|
--5---------5---------|------------5---------|--5---------5---------|
----------------------|-----------------3----|----------------------|
----------------------|----------------------|----------------------|


                                                                     
------------0---------|-----------------0----|----------------------|
----------------------|----------------------|--0-------------------|
--4--------------4----|-------4--------------|-------4--------------|
-------5--------------|--5---------5---------|------------5---------|
----------------------|----------------------|----------------------|
----------------------|----------------------|-----------------5----|


                                                                     
-----------------0----|----------------------|----------------------|
----------------------|----------------------|----------------------|
-------4--------------|--4-------------------|-------4--------------|
--5---------5---------|-------5--------------|--5---------5---------|
----------------------|-----------------3----|-----------------5----|
----------------------|------------5---------|----------------------|


                   
-----------------||
-----------------||
-------4---------||
--5---------5----||
-----------------||
-----------------||


Comments