Thrice - The Artist In The Ambulance Chords & Tabs

 

The Artist In The Ambulance Chords & Tabs

Thrice Chords & Tabs

Version: 3 Type: Tab 0 ratings
1 star 2 stars 3 stars 4 stars 5 stars
comments

The Artist In The Ambulance Tab

   
The artist in the ambulance(absolutely correct)


Drop c tuning:c-g-c-f-g-a-g

Rhythm Guitar
g|--------------------------------------------------------|----------------------|
a|--------------------------------------------------------|----------------------|
f|--------------------------------------------------------|----------------------|
c|--------------------------------------------------------|----------------------|
g|-(5)(5)(5)(5)--(5)(5)(5)(5)--(5)(5)(5)(5)--(5)(5)(5)(5)-|-\(1)(1)(1)(1)--------|
c|--5--5--5--5----5--5--5--5----5--5--5--5----5--5--5--5--|-\-1--1--1--1---------|

g|---------------------------------------|-------------------------------------------|X2
a|---------------------------------------|-------------------------------------------|
g|---------------------------------------|-------------------------------------------|
f|---------------------------------------|-------------------------------------------|
c|---------------------------------------|-(3)(3)(3)(3)-(3)(3)(3)(3)-(3)(3)(3)(3)----|
g|-(1)(1)(1)(1)-(1)(1)(1)(1)-(1)(1)(1)(1)|--1--1--1--1---1--1--1--1---1--1--1--1-----|
c|--1--1--1--1---1--1--1--1---1--1--1--1-|-------------------------------------------|

Lead Guitar
g|-------------------------------------------------------------------------------------|
a|---15--------15--15-15---13-15-------15--------15--------15--15-15h16-15h16p15-13h15-|
f|-15--12-15-12--12-----12------15-------14h15-15--12-15-12--12------------------------|
c|-------------------------------------------------------------------------------------|
g|-------------------------------------------------------------------------------------|
c|-------------------------------------------------------------------------------------|

g|------|---------13---------------------------------------|---------------------------|
a|-11-13|--13-15-------15--15-13h15-------13-15p13h15---13-|--16p15-16p15-13-13--15----|
f|------|-------15---15--15-------------15------------15---|----------------x--15--15--|
c|------|--------------------------------------------------|---------------------------|
g|------|--------------------------------------------------|---------------------------|
c|------|--------------------------------------------------|---------------------------|

g|---------------|-------|---------------------------------------------------------------------|
a|-----13h15-----|-------|---------------------------------------------------------------------|
f|14-15-----14h15|--~15~-|---------------------------------------------------------------------|
c|---------------|-------|---------------------------------------------------------------------|
g|---------------|-------|---------------------------------------------------------------------|
c|---------------|-------|---------------------------------------------------------------------|

Rhythm
g|-----------------------|--------|--------|--------|----------|-----------------------------------|
a|-----------------------|--------|--------|--------|----------|-----------------------------------|
f|-----------------------|--------|--------|--------|----------|-----------------------------------|
c|-----------------------|--------|--------|--------|----------|-----------------------------------|
g|-----------------------|5------5|\1-----1|\8-----8|\3-------3|\5-5-5-5--5-5-5-5--5-5-5-5--5-5-5\-|
c|-----------------------|5------5|\1-----1|\8-----8|\3-------3|\5-5-5-5--5-5-5-5--5-5-5-5--5-5-5\-|
[ Tab from: http://www.guitartabs.cc/tabs/t/thrice/the_artist_in_the_ambulance_tab_ver_3.html ]
g|----------------------------------|-----------------------------------|----------------------------|
a|----------------------------------|-----------------------------------|----------------------------|
f|----------------------------------|-----------------------------------|----------------------------|
c|----------------------------------|-3-3-3-3--3-3-3-3--3-3-3-3--3-3-3-3|----------------------------|
g|1-1-1-1--1-1-1-1--1-1-1-1--1-1-1-1|-1-1-1-1--1-1-1-1--1-1-1-1--1-1-1-1|----------------------------|
c|1-1-1-1--1-1-1-1--1-1-1-1--1-1-1-1|-----------------------------------|----------------------------|

g|-----------------------------------|-----------------------|-----------------------------------------|
a|-----------------------------------|-----------------------|-----------------------------------------|
f|-----------------------------------|-----------------------|-----------------------------------------|
c|-3-3-3-3--3-3-3-3--3-3-3-3--3-3-3-3|-----------------------|-----------------------------------------|
g|-5-5-5-5--5-5-5-5--5-5-5-5--5-5-5-5|-1-1-1-x-x-1-1--1-1-1-1|-1-1-1--x-x--1-1--1-1-1-1----------------|
c|-3-3-3-3--3-3-3-3--3-3-3-3--3-3-3-3|-1-1-1-x-x-1-1--1-1-1-1|-1-1-1--x-x--1-1--1-1-1-1----------------|

Lead Guitar(same time as rhythm)
g|-----------------------------------|--6-6---6-6---8-8-8-8---6-6|--6-6----6-6----8-8-8-8----6-6--|
a|-----------------------------------|-4---4-4---4-4--------4----|-4----4-4---4-4--------4-4------|
f|-----------------------------------|---------------------------|--------------------------------|
c|-----------------------------------|---------------------------|--------------------------------|
g|-----------------------------------|---------------------------|--------------------------------|
c|-----------------------------------|---------------------------|--------------------------------|

Rhythm Guitar
g|----------------------------|------------------------|---------------------------|
a|----------------------------|------------------------|---------------------------|
f|----------------------------|------------------------|---------------------------|
c|----------------------------|------------------------|---------------------------|
g|----------5---------5-------|-1-1-1--x-x-1-1--1-1-1-1|-1-1-1--x-x--1-1--1-1-1-1--|
c|-x-x-5--5---0-0\3-3---0--0-0|-1-1-1--x-x-1-1--1-1-1-1|-1-1-1--x-x--1-1--1-1-1-1--|

Lead(same time as rhythm)
g|----------------------------|--6-6----6-6---8-8-8-8---6-6-|-6-6-----6-6---8-8-8-8-----6-6--|
a|-6---------------5----------|-4---4-4----4-4--------4-----|4----4-4----4-4--------4-4------|
f|----------------------------|-----------------------------|--------------------------------|
c|----------------------------|-----------------------------|--------------------------------|
g|----------------------------|-----------------------------|--------------------------------|
c|----------------------------|-----------------------------|--------------------------------|

Rhythm Guitar
g|-----------------------------------|-------|------------------------------------------|
a|-----------------------------------|-------|------------------------------------------|
f|-----------------------------------|-------|------------------------------------------|
c|-----------------------------------|-------|------------------------------------------|
g|-5-5-5-5--5-5-5-5--3-3-3-3--3-3-3-3|-\1hold|5-5-5-5--5-5-5-5--5-5-5-5--5-5-5-5--------|
c|-5-5-5-5--5-5-5-5--3-3-3-3--3-3-3-3|-\1hold|5-5-5-5--5-5-5-5--5-5-5-5--5-5-5-5--------|

Lead Guitar
g|-6----6--5-6-8-6-----6---6-5---|---3-|----------------------------------------|
a|--3-4--3---------3-4---3-----6-|-----|---15--------15--15-15--13-15--15-------|
f|-------------------------------|-----|-15--12-15-12--12-----12-----15--14h15--|
c|-------------------------------|-----|----------------------------------------|
g|-------------------------------|-----|----------------------------------------|
c|-------------------------------|-----|----------------------------------------|

It is preety much in order I am almost positive it is flawless.  So Enjoy!!!!
Comments