Thrice - The Artist In The Ambulance Chords & Tabs

 

The Artist In The Ambulance Chords & Tabs

Thrice Chords & Tabs

Version: 1 Type: Tab 0 ratings
1 star 2 stars 3 stars 4 stars 5 stars
comments

The Artist In The Ambulance Tab

   
Song: The Artist in the Ambulance
Artist: Thrice
Album: The Artist in the Ambulance
Tabbed by: Christian / silent_warrior_@hotmail.com

All ones, no elevens. It's all pretty much in order.

/ - slide up
\ - slide down
x - mute string


Tuning: C G C F A D


Intro (palm mute)
|-------------------------------------------------------------|
|-------------------------------------------------------------|
|-------------------------------------------------------------|
|-------------------------------------------------------------|
|-55555555555555-11111111111111-88888888888888-33333333333333-|
|-55555555555555-11111111111111-88888888888888-33333333333333-|


No Palm mute
|-------------------------------------------------------------|
|-------------------------------------------------------------|
|-------------------------------------------------------------|
|-55555555555555-11111111111111-88888888888888-33333333333333-|
|-55555555555555-11111111111111-88888888888888-55555555555555-|
|-55555555555555-11111111111111-88888888888888-33333333333333-|


Lead
|------------------------------------------------------------------------------------------------------|
|----15----------15----15-15----13-15----15-----------15----------15----15--15h16-15h16p15-13h15-11/13-|
|-15----12-15-12----12-------12-------15----14h15--15----12-15-12----12--------------------------------|
|------------------------------------------------------------------------------------------------------|
|------------------------------------------------------------------------------------------------------|
|------------------------------------------------------------------------------------------------------|


|---------13--------------------------------------------------------------------------------------------|
|13h15----------15----15-13h15----13-15p13h15----13--16p15-16p15--13-x-13----15----------13h15----------|
|------15----15----15----------15-------------15--------------------------15----15-14h15-------14h15-15~|
|-------------------------------------------------------------------------------------------------------|
|-------------------------------------------------------------------------------------------------------|
|-------------------------------------------------------------------------------------------------------|


Verse "Now I lay here.."
|---------------------|
|---------------------|
|---------------------|
|---------------------|
|---------------------|
|-5----\1----/8----\3-|


Palm mute "What have I to show except.."
|---------------------------------------------------------------|
|---------------------------------------------------------------|
|---------------------------------------------------------------|
|-5----------------------------------------------33333333333333-|
|-5-55555555555555-11111111111111-88888888888888-55555555555555-|
|-5-55555555555555-11111111111111-88888888888888-33333333333333-|


Chorus "I hope that I will never let you down"
|------------------------------|
|------------------------------|
|------------------------------|
|-1-1--1-1-1-1--1-1-1--1-1-1-1-|
|-1-1--1-1-1-1--1-1-1--1-1-1-1-|
|-1-1--1-1-1-1--1-1-1--1-1-1-1-|
PM- -           - - -
 

Fill
|-----------------------------|
|-----------------------------|
|-----------------------------|
|-----------------------------|
|----------5---------5--------|
|-x-x-5--5---0-/3--3---0--0-0-|



Chorus "I know that this.."
|------------------------------|
|------------------------------|
|------------------------------|
|-1-1--1-1-1-1--1-1-1--1-1-1-1-|
|-1-1--1-1-1-1--1-1-1--1-1-1-1-|
|-1-1--1-1-1-1--1-1-1--1-1-1-1-|
PM- -           - - -



"..flashing lights and sound"
|----------------------|
|----------------------|
|----------------------|
|-55555555-33333333-1~-|
|-55555555-33333333-1~-|
|-55555555-33333333-1~-|


Lead
|------------------------------------------------------------------------------------------------------|
|----15----------15----15-15----13-15----15-----------15----------15----15--15h16-15h16p15-13h15-11/13-|
|-15----12-15-12----12-------12-------15----14h15--15----12-15-12----12--------------------------------|
|------------------------------------------------------------------------------------------------------|
|------------------------------------------------------------------------------------------------------|
|------------------------------------------------------------------------------------------------------|


|---------13--------------------------------------------------------------------------------------------|
|13h15----------15----15-13h15----13-15p13h15----13--16p15-16p15--13-x-13----15----------13h15----------|
|------15----15----15----------15-------------15--------------------------15----15-14h15-------14h15-15~|
|-------------------------------------------------------------------------------------------------------|
|-------------------------------------------------------------------------------------------------------|
|-------------------------------------------------------------------------------------------------------|

|-------------------------------------------------------------|
|-------------------------------------------------------------|
|-------------------------------------------------------------|
|-55555555555555-11111111111111-88888888888888-33333333333333-|
|-55555555555555-11111111111111-88888888888888-55555555555555-|
|-55555555555555-11111111111111-88888888888888-33333333333333-|


"Look around and you'll see..."
|-------------------------------|
|-------------------------------|
|-------------------------------|
|-5\---11111111---8\---33333333-|
|-5\---11111111---8\---55555555-|
|-5\---11111111---8\---33333333-|

[ Tab from: http://www.guitartabs.cc/tabs/t/thrice/the_artist_in_the_ambulance_tab.html ]
"..difference between sleight of hand.."
|-------------------------------------------------------------|
|-------------------------------------------------------------|
|-------------------------------------------------------------|
|-55555555555555-11111111111111-88888888888888-33333333333333-|
|-55555555555555-11111111111111-88888888888888-33333333333333-|
|-55555555555555-11111111111111-88888888888888-33333333333333-|


Lead
|------------------------------------------------------------------------------------------------------|
|----15----------15----15-15----13-15----15-----------15----------15----15--15h16-15h16p15-13h15-11/13-|
|-15----12-15-12----12-------12-------15----14h15--15----12-15-12----12--------------------------------|
|------------------------------------------------------------------------------------------------------|
|------------------------------------------------------------------------------------------------------|
|------------------------------------------------------------------------------------------------------|


|---------13--------------------------------------------------------------------------------------------|
|13h15----------15----15-13h15----13-15p13h15----13--16p15-16p15--13-x-13----15----------13h15----------|
|------15----15----15----------15-------------15--------------------------15----15-14h15-------14h15-15~|
|-------------------------------------------------------------------------------------------------------|
|-------------------------------------------------------------------------------------------------------|
|-------------------------------------------------------------------------------------------------------|


Chorus
|------------------------------|
|------------------------------|
|------------------------------|
|-1-1--1-1-1-1--1-1-1--1-1-1-1-|
|-1-1--1-1-1-1--1-1-1--1-1-1-1-|
|-1-1--1-1-1-1--1-1-1--1-1-1-1-|
PM- -           - - -



Fill
|-----------------------------|
|-----------------------------|
|-----------------------------|
|-----------------------------|
|----------5---------5--------|
|-x-x-5--5---0-/3--3---0--0-0-|


Chorus
|------------------------------|
|------------------------------|
|------------------------------|
|-1-1--1-1-1-1--1-1-1--1-1-1-1-|
|-1-1--1-1-1-1--1-1-1--1-1-1-1-|
|-1-1--1-1-1-1--1-1-1--1-1-1-1-|
PM- -           - - -



"...flashing lights and sound"
|----------------------|
|----------------------|
|----------------------|
|-55555555-33333333-1~-|
|-55555555-33333333-1~-|
|-55555555-33333333-1~-|


"Rhetoric can't raise the dead..." (listen for variations)
|----------------------------|
|----------------------------|
|----------------------------|
|-5-5--5-5-5-5--1-1--1-1-1-1-|
|-5-5--5-5-5-5--1-1--1-1-1-1-|
|-5-5--5-5-5-5--1-1--1-1-1-1-|
PM- -           - -


"Let's lead, not follow"
|-----------------------------|
|-----------------------------|
|-----------------------------|
|-0-0--0-0-0-0--0-0-0--0~--8\-|
|-0-0--0-0-0-0--0-0-0--0~--8\-|
|-0-0--0-0-0-0--0-0-0--0~--8\-|
PM--            - - -

Palm mute - "Late night, brakes lock.."
|-------------------------------------------------------------|
|-------------------------------------------------------------|
|-------------------------------------------------------------|
|-------------------------------------------------------------|
|-55555555555555-11111111111111-88888888888888-33333333333333-|
|-55555555555555-11111111111111-88888888888888-33333333333333-|


Lead
|------------------------------------------------------------------------------------------------------|
|----15----------15----15-15----13-15----15-----------15----------15----15--15h16-15h16p15-13h15-11/13-|
|-15----12-15-12----12-------12-------15----14h15--15----12-15-12----12--------------------------------|
|------------------------------------------------------------------------------------------------------|
|------------------------------------------------------------------------------------------------------|
|------------------------------------------------------------------------------------------------------|


|---------13--------------------------------------------------------------------------------------------|
|13h15----------15----15-13h15----13-15p13h15----13--16p15-16p15--13-x-13----15----------13h15----------|
|------15----15----15----------15-------------15--------------------------15----15-14h15-------14h15-15~|
|-------------------------------------------------------------------------------------------------------|
|-------------------------------------------------------------------------------------------------------|
|-------------------------------------------------------------------------------------------------------|

"...greedy jaws of death and chance.."
|-------------------------------------------------------------|
|-------------------------------------------------------------|
|-------------------------------------------------------------|
|-55555555555555-11111111111111-88888888888888-33333333333333-|
|-55555555555555-11111111111111-88888888888888-33333333333333-|
|-55555555555555-11111111111111-88888888888888-33333333333333-|


"I hope that I will never let you down"
|------------------------------|
|------------------------------|
|------------------------------|
|-1-1--1-1-1-1--1-1-1--1-1-1-1-|
|-1-1--1-1-1-1--1-1-1--1-1-1-1-|
|-1-1--1-1-1-1--1-1-1--1-1-1-1-|
PM- -           - - -



Fill
|-----------------------------|
|-----------------------------|
|-----------------------------|
|-----------------------------|
|----------5---------5--------|
|-x-x-5--5---0-/3--3---0--0-0-|


"I know, that this can be..."
|------------------------------|
|------------------------------|
|------------------------------|
|-1-1--1-1-1-1--1-1-1--1-1-1-1-|
|-1-1--1-1-1-1--1-1-1--1-1-1-1-|
|-1-1--1-1-1-1--1-1-1--1-1-1-1-|
PM- -           - - -



"More than flashing lights and sound.."
|----------------------|
|----------------------|
|----------------------|
|-55555555-33333333-1~-|
|-55555555-33333333-1~-|
|-55555555-33333333-1~-|


Ending
|------------------------------|
|------------------------------|
|------------------------------|
|-1-1--1-1-1-1--1-1-1--1-1-1-1-|
|-1-1--1-1-1-1--1-1-1--1-1-1-1-|
|-1-1--1-1-1-1--1-1-1--1-1-1-1-|
PM- -           - - -
Comments