Thrice - That Hideous Strength Chords & Tabs

 

That Hideous Strength Chords & Tabs

Thrice Chords & Tabs

Version: 1 Type: Bass Tab 0 ratings
1 star 2 stars 3 stars 4 stars 5 stars
comments

That Hideous Strength Bass Tab

THRICE - (That) Hideous Strength
------------------------------------------------------------------------------
Verse: (2x)
G|---------------------------------------------------------------------------|
D|---------------------------------------------------------------------------|
A|---------------------------------------------------------------------------|
E|0-0-0-0--0---8--8--8-0-0-0-0--0---7--7--7-0-0-0-0--0---8--8--8-0-0-0-0--0--|
....... . ....... . ....... . ....... .

Verse Cont'd:
G|---------------------------------------------------------------------------|
D|---------------------------------------------------------------------------|
A|---------------------------------------------------------------------------|
E|1-1-1----------------------------------------------------------------------|

Next Part:
G|---------------------------------------------------------------------------|
D|---------------------------------------------------------------------------|
A|---------------------------------------------------------------------------|
E|0-7-8~---0-7-8~---0-7-8~---0-7-8-8x----------------------------------------|

Repeat Verse

Part After That: (Lets call this #1 and the order is 1-1-1-2-1-2)--------------|
G|-----------------------------------------------------------------------------|
D|-----------------------------------------------------------------------------|
A|-----------------------------------------------------------------------------|
E|0-0-0-0-0-10-10-10-10-10-10--8--8--8--8--8--8--7--7--7--7--7--7--------------|
[ Tab from: http://www.guitartabs.cc/tabs/t/thrice/that_hideous_strength_btab.html ]
Part After That Cont'd: (Lets call this #2 and the order is 1-1-1-2-1-2)-------|
G|-----------------------------------------------------------------------------|
D|-----------------------------------------------------------------------------|
A|-----------------------------------------------------------------------------|
E|0-0-0-0-0-10-10-10-10-10-10-5-5-5-5-5-5-3-3-3-3-3-3--------------------------|

Part After That Cont'd: (Ring Out)
G|---------------------------------------------------------------------------|
D|---------------------------------------------------------------------------|
A|---------------------------------------------------------------------------|
E|0~---0~--------------------------------------------------------------------|

Metal Part: (8x) (#1)
G|-------------|
D|-------------|
A|-------------|
E|---0-0-0-0---|
.......

Metal Part Cont'd: (#2)
G|-----------------------------------------------------------------------------|
D|-----------------------------------------------------------------------------|
A|-65-5--------------65-5--------------65-5--------------1-1-1-1-3-3-3-3-------|
E|-------0-0-0--0-0-0-------0-0-0--0-0-0-------0-0-0--0-0-0--------------------|
..... ..... ..... ..... ..... ..... ...............

End of Metal Part:
G|---------------------------------------------------------------------------|
D|---------------------------------------------------------------------------|
A|---------------------------------------------------------------------------|
E|--?-?-?-----6-6-6x---------------------------------------------------------|

Order For Metal Part: 1-2-1-2-2-end of metal part

Rhythm for Finger Tapping: (Play Verse 2x)

Rhythm for Finger Tapping Cont'd: (2x)
G|---------------------------------------------------------------------------|
D|---------------------------------------------------------------------------|
A|---------------------------------------------------------------------------|
E|-0-0-0-0x---0-0-0-0x---0-0-0-0x---0-0-0-0x--1-1-1-1x-----------------------|
....... ....... ....... .......

Ending: (High note fades in)
G|---------------------------|
D|---------------------------|
A|---------------------------|
E|-0~~~----------------------|
Comments