Thrice - Silhouette Chords & Tabs

 

Silhouette Chords & Tabs

Thrice Chords & Tabs

Version: 1 Type: Tab 0 ratings
1 star 2 stars 3 stars 4 stars 5 stars
comments

Silhouette Tab

   
Song: Silhouette
Artist: Thrice
Album: The Artist in the Ambulance
Tabbed by: Christian / silent_warrior_@hotmail.com

PM - Palm mute
/ - Slide up
\ - Slide down

Tuning: C G C F A D



Intro/Verse - Both Guitars
|---------------------------------------------------------------------------------------------|
|---------------------------------------------------------------------------------------------|
|---------------------------------------------------------------------------------------------|
|-0-0-0---0-0-0-10-10-10-0-0-0---0-0-0-10-10-10-8-8-8---8-8-8-10-10-10-8-8-8---8-8-8-10-10-10-|
|-0-0-0---0-0-0-10-10-10-0-0-0---0-0-0-10-10-10-8-8-8---8-8-8-10-10-10-8-8-8---8-8-8-10-10-10-|
|-0-0-0---0-0-0-10-10-10-0-0-0---0-0-0-10-10-10-8-8-8---8-8-8-10-10-10-8-8-8---8-8-8-10-10-10-|


Guitar 2
|-----9-----9-----9-|
|---7-----7-----7---|
|-7-----7-----7-----|
|-------------------|
|-------------------|
|-------------------|


Guitar 2
|-----------------------------|
|-8/10---8-10-8-6---5-6-5-----|
|-------------------------6-4-|
|-----------------------------|
|-----------------------------|
|-----------------------------|


Chorus - Both Guitars
|------------------------------|
|------------------------------|
|------------------------------|
|-10\1-0--7-9-7-5-3-1--5-3-5-6-|
|-10\1-0--7-9-7-5-3-1--5-3-5-6-|
|-10\1-0--7-9-7-5-3-1--5-3-5-6-|


Verse - Both Guitars
|---------------------------------------------------------|
|---------------------------------------------------------|
|---------------------------------------------------------|
|-8-8-8---8-8-8-10-10-10-8-8-8---8-8-8-10-10-10--00000000-|
|-8-8-8---8-8-8-10-10-10-8-8-8---8-8-8-10-10-10--00000000-|
|-8-8-8---8-8-8-10-10-10-8-8-8---8-8-8-10-10-10--00000000-|
PM                                               --------


Verse - Both Guitars
|---------------------------------------------------------------------------------------------|
|---------------------------------------------------------------------------------------------|
|---------------------------------------------------------------------------------------------|
|-0-0-0---0-0-0-10-10-10-0-0-0---0-0-0-10-10-10-8-8-8---8-8-8-10-10-10-8-8-8---8-8-8-10-10-10-|
|-0-0-0---0-0-0-10-10-10-0-0-0---0-0-0-10-10-10-8-8-8---8-8-8-10-10-10-8-8-8---8-8-8-10-10-10-|
|-0-0-0---0-0-0-10-10-10-0-0-0---0-0-0-10-10-10-8-8-8---8-8-8-10-10-10-8-8-8---8-8-8-10-10-10-|

[ Tab from: http://www.guitartabs.cc/tabs/t/thrice/silhouette_tab.html ]
Guitar 2
|-----9-----9-----9-|
|---7-----7-----7---|
|-7-----7-----7-----|
|-------------------|
|-------------------|
|-------------------|


Guitar 2
|-----------------|
|-10---8---13---8-|
|-----------------|
|-----------------|
|-----------------|
|-----------------|


Guitar 2
|-----------------------------|
|-8/10---8-10-8-6---5-6-5-----|
|-------------------------6-4-|
|-----------------------------|
|-----------------------------|
|-----------------------------|


Chorus - Both Guitars
|------------------------------|
|------------------------------|
|------------------------------|
|-10\1-0--7-9-7-5-3-1--5-3-5-6-|
|-10\1-0--7-9-7-5-3-1--5-3-5-6-|
|-10\1-0--7-9-7-5-3-1--5-3-5-6-|


Bridge - Guitar 1
|--------------------------------------------|
|--------------------------------------------|
|--------------------------------------------|
|-00000000---0-0-0-0-0---8-8-8-8-8-8-8-8-8-8-|
|-00000000---0-0-0-0-0---8-8-8-8-8-8-8-8-8-8-|
|-00000000---0-0-0-0-0---8-8-8-8-8-8-8-8-8-8-|
PM--------


Bridge - Guitar 2
|-----------------------------------------------------------------------------------------------------------------|
|-----------------------------------------------------------------------------------------------------------------|
|7-7-7-7-7-7-9-9-9-9-9-9-10-10-10-10-10-10-12-12-12-12-12-12-10-10-10-10-10-10-14-14-14-14-14-14-12-12-12-12-12-12|
|-----------------------------------------------------------------------------------------------------------------|
|5-5-5-5-5-5-7-7-7-7-7-7--8--8--8--8--8--8-10-10-10-10-10-10--8--8--8--8--8--8-12-12-12-12-12-12-10-10-10-10-10-10|
|-----------------------------------------------------------------------------------------------------------------|


|-------------------------------------------------------------|
|-------------------------------------------------------------|
|-9-9-9-9-9-9-7-7-7-7-7-7-14-14-14-14-14-14-14-14-14-14-14-14-|
|-------------------------------------------------------------|
|-7-7-7-7-7-7-5-5-5-5-5-5-12-12-12-12-12-12-12-12-12-12-12-12-|
|-------------------------------------------------------------|


Chorus - Both Guitars
|------------------------------|
|------------------------------|
|------------------------------|
|-10\1-0--7-9-7-5-3-1--5-3-5-6-|
|-10\1-0--7-9-7-5-3-1--5-3-5-6-|
|-10\1-0--7-9-7-5-3-1--5-3-5-6-|


Both Guitars
|------------------------------|
|------------------------------|
|------------------------------|
|------------------------------|
|------------------------------|
|-10\1-0--7-9-7-5-3-1--5-3-5-6-|


End
|-------|
|-------|
|-------|
|-0-0-0-|
|-0-0-0-|
|-0-0-0-|
Comments