Thrice - Send Me An Angel Chords & Tabs

 

Send Me An Angel Chords & Tabs

Thrice Chords & Tabs

Version: 2 Type: Tab

Send Me An Angel Tab

  send me an angel tab by thrice


|------------------------|
|---4--------------------|
|-6---6---------9----9-8-|
|-------6-----9----------|
|-----------7------7-----|
|------------------------|

|----------------------------------|
|-----------4----------------------|
|-----6---6---6---------9-----9-8--|
|-6-6---6-------6-----7------------|x 9
|-------------------7------7-------|
|----------------------------------|

|---------------------------------------|
|----2p0---0h2p0-------4p2---2h4/5-4----|
|-2------2-------2--4------4---------4--|
|-2-----------------4-------------------|
|-0-----------------2-------------------|
|---------------------------------------|
[ Tab from: http://www.guitartabs.cc/tabs/t/thrice/send_me_an_angel_tab_ver_2.html ]
|-------------------------------------|
|-------------------------------------|
|-------------------------------------|
|-6xxxxxxxxxxxxxxxxxxxxxxxxxxxxxxxxx--|
|-4xxxxxxxxxxxxxxxxxxxxxxxxxxxxxxxxx--|
|-------------------------------------|

|---------------------------------------|
|----2p0---0h2p0-------4p2---2h4/5-4----|
|-2------2-------2--4------4---------4--|
|-2-----------------4-------------------|
|-0-----------------2-------------------|
|---------------------------------------|

|-------------------------------------|
|-------------------------------------|
|-------------------------------------|
|-6xxxxxxxxxxxxxxxxxxxxxxxxxxxxxxxxx--|
|-4xxxxxxxxxxxxxxxxxxxxxxxxxxxxxxxxx--|
|-------------------------------------|

|---------------------------------------|
|----2p0---0h2p0-------4p2---2h4/5-4----|
|-2------2-------2--4------4---------4--|
|-2-----------------4-------------------|
|-0-----------------2-------------------|
|---------------------------------------|



  steve,,,  pompom020366@hotmail.com    pompom@sympatico.ca