Thrice - See You In The Shallows Chords & Tabs

 

See You In The Shallows Chords & Tabs

Thrice Chords & Tabs

Version: 1 Type: Tab 0 ratings
1 star 2 stars 3 stars 4 stars 5 stars
comments

See You In The Shallows Tab

   
Author/Artist: Thrice
Title: See You in the Shallows
Album: Illusion Of Safety
Transcribed by: Justin McCarthy    email me at ctrdrummer@aol.com
visit my band Crosstown Rival at www.crosstownrival.com or download 
our music from
www.mp3.com/crosstownrival

all guitars are half-step drop D tuned

intro
eb:-------------------------------------------------------------
Bb:-------------------------------------------------------------
Gb:-------------------------------------------------------------
Db:---------3-3---2--2---2--2---3--3---3--3---2--2---2--2-2-2---
Ab:---------5-5-5-3--3-3-3--3-3-1--1-1-1--1-1-3--3-3-3--3-3-3---
Db:-0-000-0-----------------------------------------------------
                                                                              
eb:--------------------------------------------------------------
Bb:--------------------------------------------------------------
Gb:--------------------------------------------------------------
Db:---------3-3---2--2---2--2---4--4-4-4-4-4-4-4-3-3-3-3-3-3-3-3-
Ab:---------5-5-5-3--3-3-3--3-0-2--2-2-2-2-2-2-2-1-1-1-1-1-1-1-1-
Db:-0-000-0------------------------------------------------------
                                                                              
eb:-----------------------------------------------------------------
Bb:-----------------------------------------------------------------
Gb:-----------------------------------------------------------------
Db:-----------------------------------------------------------------
Ab:---------8p7--10--8-7-8--7-5-7----------8p7--10--8-10-12--10-8-7- 
Db:-0-000-0----0-------------------0-000-0----0---------------------
                                                                  
eb:------------------------------------------------------------------
Bb:------------------------------------------------------------------
Gb:------------------------------------------------------------------
Db:-------------------------------------------------------8--7----7--
Ab:---------8p7--10--8-7-8--7-5-7-----------8p7--10--8-10------10----
Db:-0-000-0----0--------------------0-000-0--------------------------
                                                                              
eb:----5-5h8p5------------------------------------------------------------
Bb:--6--------6---8---8---8---6-------------------------------------------
Gb:7----7-------7---7---7---7--10/12-12-12-12\10-10-10-10\9-9-9-9/10-10-10
Db:-----------------------------------------------------------------------
Ab:----------------------------8-/10-10-10-10\8--8--8--8-\7-7-7-7/8--8--8-
Db:-----------------------------------------------------------------------
      1.  Ihear the waves crashfarbelow;                    The rocks are     

eb:----5--5h8p5-----------------------------------------------------------
Bb:--6---------6---8---8---8---6------------------------------------------
Gb:7----7--------7---7---7---7--10/12-12-12-12/14-14-14-14\12121212\101010
Db:-----------------------------------------------------------------------
Ab:-----------------------------8-/10-10-10-10/12-12-12-12\10101010\8-8-8-
Db:-----------------------------------------------------------------------
    lea--ping        for  the    sky.                           2. They're        

eb:---5--5h8p5------------------------------------------------------------
Bb:-6---------6---8---8---8---6-------------------------------------------
Gb:7---7--------7---7---7---7--10/12-12-12-12\10-10-10-10\9-9-9-9/10-10-10
Db:-----------------------------------------------------------------------
Ab:----------------------------8-/10-10-10-10\8--8--8--8-\7-7-7-7/8--8--8-
Db:-----------------------------------------------------------------------
   starving for the air  for a  bone  to   break  a  dream  to smash apart


eb:----5--5h8p5-----------------------------------------------------------
Bb:--6---------6---8---8---8---6------------------------------------------
Gb:7----7--------7---7---7---7--10/12-12-12-12/14-14-14-14\12121212\101010
Db:-----------------------------------------------------------------------
Ab:-----------------------------8-/10-10-10-10/12-12-12-12\10101010\8-8-8-
Db:-----------------------------------------------------------------------
		 but   I    don't   care.			It looks

eb:-------------------------------------------------------
Bb:-------------------------------------------------------
Gb:-7--7--7-7-7-10-1010-1010101012-12-121212-9--9-9-10-9--
Db:-------------------------------------------------------
Ab:-5--5--5-5-5-8--8-8--8-8-8-8-10-10-101010-7--7-7-8--7--
Db:-------------------------------------------------------
    deep enough from here; I'm diving.                                  

eb:--------------------------------------------------------
Bb:--------------------------------------------------------
Gb:-7--7--7-10-9--9-9--9-9-9-9-10-10-109--5--5-5--5-5-5-5--
Db:--------------------------------------------------------
Ab:-5--5--5-8--7--7-7--7-7-7-7-8--8--8-7--3--3-3--3-3-3-3--
Db:--------------------------------------------------------
Thiscliffhasbeenwellwornbyignorance    		   It looks	

eb:--------------------------------------------------------
Bb:--------------------------------------------------------
Gb:-7--7--7-7-7-10-1010-1010101012-12-121212-9--9-9-10-9---
Db:--------------------------------------------------------
Ab:-5--5--5-5-5-8--8-8--8-8-8-8-10-10-101010-7--7-7-8--7---
Db:--------------------------------------------------------
    deep enough from here; I'm diving.                they                  
                                                                                          
eb:---------------------------------5--6p5-------
Bb:-------------------------------6--------6-----
Gb:-7--7--7-10-9--9-9--9-9-9-9-------------------
Db:-----------------------------10-----------10--
Ab:-5--5--5-8--7--7-7--7-7-7-7-------------------
Db:----------------------------------------------
float facedown theyall look socontent. 

eb:----------------------------------------------------------------------
Bb:----------------------------------------------------------------------
Gb:-10--10-----------------------10/12-12-12\10-10-10-10\9-9-9-9/10-10-10
Db:-10--10---------------------------------------------------------------
Ab:-8---8------------------------8-/10-10-10\8--8--8--8-\7-7-7-7/8--8--8-
Db:-8---8----------------------------------------------------------------
	 I don't knowwhy I'm even   here			guess I'm

eb:----5--5h8p5-----------------------------------------------------------
Bb:--6---------6---8---8---8---6------------------------------------------
Gb:7----7--------7---7---7---7--10/12-12-12-12/14-14-14-14\12121212\101010
Db:-----------------------------------------------------------------------
Ab:-----------------------------8-/10-10-10-10/12-12-12-12\10101010\8-8-8-
Db:-----------------------------------------------------------------------
 afraid   to     be     a--lone					and down

eb:----------------------------------------------------------------------
Bb:----------------------------------------------------------------------
Gb:-10--10-----------------------10/12-12-12\10-10-10-10\9-9-9-9/10-10-10
Db:-10--10---------------------------------------------------------------
Ab:-8---8------------------------8-/10-10-10\8--8--8--8-\7-7-7-7/8--8--8-
Db:-8---8----------------------------------------------------------------
below I see my crew, they look o.k., that can't   be  blood   the   water
 
eb:----------------------------------------------------
Bb:----------------------------------------------------
Gb:-14--12--10-9-10-9--7--5--7--7--7-7-7-9--9--10-10---
Db:----------------------------------------------------
Ab:-12--10--8--7-8--7--5--3--5--5--5-5-5-7--7--8--8----
Db:----------------------------------------------------
    here	is far too blue                   and                                            

eb:-----------------------------------------------------------
Bb:-----------------------------------------------------------
Gb:-9--9--9-9-9-9--9-9--9-9-9-9--14-14-1412--10-1010-10101010-
Db:-----------------------------------------------------------
Ab:-7--7--7-7-7-7--7-7--7-7-7-7--12-12-1210--8--8-8--8-8-8-8--
Db:-----------------------------------------------------------
    gra---vity		   seems far	    a---                                                                          
eb:-----------------------------------------------------------
Bb:-----------------------------------------------------------
Gb:-9--9--9-9-9-9--9-9--9-9-9-9--10-10-109--7--7-7--7-7--10---
Db:-----------------------------------------------------------
Ab:-7--7--7-7-7-7--7-7--7-7-7-7--8--8--8-7--5--5-5--5-5--8----
Db:-----------------------------------------------------------
   -way, butIcanhear her call my name.		     It's so                                                                             
eb:---------------------------------------------------------------------
Bb:---------------------------------------------------------------------
Gb:-9--9--9-9-9-9-5---7--9--10-10-10101012-1212-121212-10-1010-10101010-
Db:---------------------------------------------------------------------
Ab:-7--7--7-7-7-7--3--5--7--8--8--8-8-8-10-1010-101010-8--8-8--8-8-8-8--
Db:---------------------------------------------------------------------
    comforting  to know iI'll never have to think again                                                                          
eb:-----------------------------------------------
Bb:-----------------------------------------------
Gb:-1010-1010106--6-6--6-6-6-6--6-6--6-6-6--7-\---
Db:-----------------------------------------7-\---
Ab:-8-8--8-8-8-4--4-4--4-4-4-4--4-4--4-4-4--5-\---
Db:-----------------------------------------------
                                         It looks                                     
deep enough from here Im diving,this cliff has been 

well worn by ignorance it looks deep enough from 

here Im diving   We

eb:-------------------------------------------------------------
Bb:-------------------------------------------------------------
Gb:-7-7-7-7-7-7-7-7-9-9-9-9-9-9-9-9-10----10----10-10-----------
Db:-------------------------------------------------------------
Ab:-5-5-5-5-5-5-5-5-7-7-7-7-7-7-7-7-8888888888888888------------
Db:-------------------------------------------------------------
    float face down, but we look content.               It looks  
 
eb:----2---2h5p2---------0--0h2p0-----------2--2h5p2----------2--2h5p2----
Bb:--3-----------3p0--------------3p0-----3---------3p0-----3----------3p0
Gb:4-----4-----------2-2---2----------4-4----4----------4-4----4----------
Db:-----------------------------------------------------------------------
Ab:-----------------------------------------------------------------------
Db:-----------------------------------------------------------------------
    deep enough from here        I'm   diving                       this                 

eb:-----2---2h5p2---------0---0h2p0----------0---0h2p0---------0---2p0----
Bb:---3-----------3p0---------------3p0----------------3p0-------------3p0
Gb:-4-----4-----------2-2---2------------1-1---1-----------0-0---0--------
Db:-----------------------------------------------------------------------
Ab:-----------------------------------------------------------------------
Db:-----------------------------------------------------------------------
    cliff has been well worn by ignorance                        it looks                

eb:----2--2h5p2--------0--0h2p0-----------2---2h5p2----------2---2h5p2----
Bb:--3---------3p0--------------3p0-----3----------3p0-----3-----------3p0
Gb:4----4----------2-2--2-----------4-4-----4----------4-4-----4----------
Db:-----------------------------------------------------------------------
Ab:-----------------------------------------------------------------------
Db:-----------------------------------------------------------------------
deep enough from here       I'm diving      		    We

eb:-----2---2h5p2---------0---0h2p0-----2---5p2---------2---5p2-----
Bb:---3-----------3p0-----------------3-----------3-----------------
Gb:-4-----4-----------2-2---2-------4-----4-----4---4-4---4---------
Db:-----------------------------------------------------------------
Ab:-----------------------------------------------------------------
Db:-----------------------------------------------------------------
 float facedown, butdon't we all look so   con- tent          It looks                                                                
eb:----2--2h5p2--------0--0h2p0----------2---2h5p2-----------2---2h5p2----
Bb:--3---------3p0-------------3p0-----3-----------3p0-----3-----------3p0
Gb:4----4----------2-2--2----------4-4-----4-----------4-4-----4----------
Db:-----------------------------------------------------------------------
Ab:-----------------------------------------------------------------------
Db:-----------------------------------------------------------------------
			Deep				enough	     from

eb:-----2---2h5p2---------0---0h2p0----------0---0h2p0---------0---2p0----
Bb:---3-----------3p0---------------3p0----------------3p0-------------3p0
Gb:-4-----4-----------2-2---2------------1-1---1-----------0-0---0--------
Db:-----------------------------------------------------------------------
Ab:-----------------------------------------------------------------------
Db:-----------------------------------------------------------------------
	here							It looks

eb:----2--2h5p2--------0--0h2p0-----------2---2h5p2-----------2--2h5p2----
Bb:--3---------3p0--------------3p0-----3-----------3p0-----3----------3p0
Gb:4----4----------2-2--2-----------4-4-----4-----------4-4----4----------
Db:-----------------------------------------------------------------------
Ab:-----------------------------------------------------------------------
Db:-----------------------------------------------------------------------
			Deep				enough	     from

eb:-----2---2h5p2---------0---0h2p0-----3p2p0-3---------
Bb:---3-----------3p0-------------------------3-3p0-----
Gb:-4-----4-----------2-2---2-----------------------0---
Db:-----------------------------------------------------
Ab:-----------------------------------------------------
Db:-----------------------------------------------------
    here                                                                          

========================================================================
========================================================================
2nd Guitar

All guitars half-step drop "d" tunning

intro
eb:-----------------------------
Bb:-----------------------------
Gb:-----------------------------
Db:-0--------------------0------
Ab:-0--------------------0------
Db:-0--------------------0------
[ Tab from: http://www.guitartabs.cc/tabs/t/thrice/see_you_in_the_shallows_tab.html ]
eb:-------------------------------------------------------------
Bb:-------------------------------------------------------------
Gb:-------------------------------------------------------------
Db:---------3-3---2--2---2--2---3--3---3--3---2--2---2--2-2-2---
Ab:---------5-5-5-3--3-3-3--3-3-1--1-1-1--1-1-3--3-3-3--3-3-3---
Db:-0-000-0-----------------------------------------------------
                                                               
eb:------------------------------------------------------------------
Bb:------------------------------------------------------------------
Gb:------------------------------------------------------------------
Db:---------3-3---2--2---2--2---3--3---3--3---2--2---2--2-2-2---10---
Ab:---------5-5-5-3--3-3-3--3-3-1--1-1-1--1-1-3--3-3-3--3-3-3----0---
Db:-0-000-0------------------------------------------------------0---
                                                         hearthewaves     
                                                             crash far 
eb:-------------------------------------------------------------------
Bb:-------------------------------------------------------------------
Gb:-------------------------------------------------------------------
Db:-10--10--10101010--1010--1010101010--10--10101010--1010--10101010--
Ab:--0---0---0-0-0-0---0-0---0-0-0-0-7---7---7-7-7-7---7-7---7-7-7-7--
Db:--0---0---0-0-0-0---0-0---0-0-0-0-7---7---7-7-7-7---7-7---7-7-7-7--
     below        the    rocks are   leaping       for the                                                          
eb:-------------------------------------------------------------------
Bb:-------------------------------------------------------------------
Gb:-------------------------------------------------------------------
Db:-10--10--10101010--1010--1010101010--10--10101010--1010--10101010--
Ab:--8---8---8-8-8-8---8-8---8-8-8-8-8---8---8-8-8-8---8-8---8-8-8-8--
Db:--8---8---8-8-8-8---8-8---8-8-8-8-8---8---8-8-8-8---8-8---8-8-8-8--
     sky                    they're starving for the air     for a                                                     
eb:-------------------------------------------------------------------
Bb:-------------------------------------------------------------------
Gb:-------------------------------------------------------------------
Db:-10--10--10101010--1010--1010101010--10--10101010--1010--10101010--
Ab:--0---0---0-0-0-0---0-0---0-0-0-0-7---7---7-7-7-7---7-7---7-7-7-7--
Db:--0---0---0-0-0-0---0-0---0-0-0-0-7---7---7-7-7-7---7-7---7-7-7-7--
    bone to break a dream to smash apart                but I don't

eb:-----------------------------------
Bb:-----------------------------------
Gb:-----------------------------------
Db:-10--10--10101010--1010--10101010--
Ab:--8---8---8-8-8-8---8-8---8-8-8-8--
Db:--8---8---8-8-8-8---8-8---8-8-8-8--
   care                      It looks                                                     

eb:-------------------------------------------------------------------
Bb:-------------------------------------------------------------------
Gb:----------------------------------3---3---3-3-3--------------------
Db:--0---0---0-0-0-3---3-3---3-3-3-3-3---3---3-3-3-3---3-3-5---5-5-5--
Ab:--0---0---0-0-0-3---3-3---3-3-3-3-1---1---1-1-1-3---3-3-5---5-5-5--
Db:--0---0---0-0-0-3---3-3---3-3-3-3---------------3---3-3-5---5-5-5--
 deep enough from here            I'm Diving                   this                                              
eb:-------------------------------------------------------------------
Bb:-------------------------------------------------------------------
Gb:----------------5---5-5---5-5-5-5-3---3---3-3-3--------------------
Db:--0---0---0-0-0-5---5-5---5-5-5-5-3---3---3-3-3-3---3-3---3-3-3-3--
Ab:--0---0---0-0-0-3---3-3---3-3-3-3-1---1---1-1-1-3---3-3---3-3-3-3--
Db:--0---0---0-0-0---------------------------------3---3-3---3-3-3-3--
  cliff has been well worn by ignorance                                                                            
eb:-------------------------------------------------------------------
Bb:-------------------------------------------------------------------
Gb:----------------------------------3---3---3-3-3--------------------
Db:--0---0---0-0-0-3---3-3---3-3-3-3-3---3---3-3-3-3---3-3-5---5-5-5--
Ab:--0---0---0-0-0-3---3-3---3-3-3-3-1---1---1-1-1-3---3-3-5---5-5-5--
Db:--0---0---0-0-0-3---3-3---3-3-3-3---------------3---3-3-5---5-5-5--
 deep enough from here            I'm Diving                  they

eb:-----------------------------------------------------------------
Bb:-----------------------------------------------------------------
Gb:----------------5---5-5---5-5-5-5-2--3---------------------------
Db:--0---0---0-0-0-5---5-5---5-5-5-5-2--3--1-----------10--10-------
Ab:--0---0---0-0-0-3---3-3---3-3-3-3-0--1--1------------8---8-------
Db:--0---0---0-0-0-------------------------1------------8---8-------
  float face down they all look so content               Don't know                                                                                       why I even
eb:----------------------------------------------------------------
Bb:----------------------------------------------------------------
Gb:----------------------------------------------------------------
Db:-10--10--10--10--10--10--10--10--10--10--10--10--10--10--10--10-
Ab:--0---0---0---0---0---0---0---0---7---7---7---7---7---7---7---7-
Db:--0---0---0---0---0---0---0---0---7---7---7---7---7---7---7---7-
     here                guess I'm   afraid to be                                                         
eb:----------------------------------------
Bb:----------------------------------------
Gb:----------------------------------------
Db:-10--10--10--10--10--10--10--1010--10---
Ab:--8---8---8---8---8---8---8---8-8---8---
Db:--8---8---8---8---8---8---8---8-8---8---
     alone          and down below I see my crew they look                                                               
eb:-------------------------------------------------------------------
Bb:-------------------------------------------------------------------
Gb:-------------------------------------------------------------------
Db:-10--10--10101010--1010--1010101010--10--10101010--1010--10101010--
Ab:--0---0---0-0-0-0---0-0---0-0-0-0-7---7---7-7-7-7---7-7---7-7-7-7--
Db:--0---0---0-0-0-0---0-0---0-0-0-0-7---7---7-7-7-7---7-7---7-7-7-7--
 o.k. that can't be blood the water here                 Is far too 

eb:-----------------------------------
Bb:-----------------------------------
Gb:-----------------------------------
Db:-10--10--10101010--1010--10101010--
Ab:--8---8---8-8-8-8---8-8---8-8-8-8--
Db:--8---8---8-8-8-8---8-8---8-8-8-8--
     blue                        and

eb:-------------------------------------------------------------------
Bb:-------------------------------------------------------------------
Gb:--5---5---5-5-5-5---5-5---5-5-5-5-7---7---7-7-7-3---3-3---3-3-3-3--
Db:--5---5---5-5-5-5---5-5---5-5-5-5-7---7---7-7-7-3---3-3---3-3-3-3--
Ab:--3---3---3-3-3-3---3-3---3-3-3-3-5---5---5-5-5-1---1-1---1-1-1-1--
Db:-------------------------------------------------------------------
      gravity                  seems far       a--                                                   
eb:-------------------------------------------------------------------
Bb:-------------------------------------------------------------------
Gb:--5---5---5-5-5-5---5-5---5-5-5-5-7---7---7-7-7-3---3-3---3-3-3-3--
Db:--5---5---5-5-5-5---5-5---5-5-5-5-7---7---7-7-7-3---3-3---3-3-3-3--
Ab:--3---3---3-3-3-3---3-3---3-3-3-3-5---5---5-5-5-1---1-1---1-1-1-1--
Db:-------------------------------------------------------------------
     way  but I can hear her call my name                  it's so 

eb:-------------------------------------------------------------------
Bb:-------------------------------------------------------------------
GB:--2---2---2-2-2-2---2-2---2-2-2-2-7---7---7-7-7-5---5-5---5-5-5-5--
Db:--2---2---2-2-2-2---2-2---2-2-2-2-7---7---7-7-7-5---5-5---5-5-5-5--
Ab:--0---0---0-0-0-0---0-0---0-0-0-0-5---5---5-5-5-3---3-3---3-3-3-3--
Db:-------------------------------------------------------------------
     comforting to know ill never      have    to  think           a-                                                             
eb:-------------------------------------------------------------------
Bb:----------------------------------2---2---2-2-2-2---2-2---2-2-2-2--
Gb:--3---3---3-3-3-3---3-3---3-3-3-3-3---3---3-3-3-3---3-3---3-3-3-3--
Db:--3---3---3-3-3-3---3-3---3-3-3-3-3---3---3-3-3-3---3-3---3-3-3-3--
Ab:--1---1---1-1-1-1---1-1---1-1-1-1-1---1---1-1-1-1---1-1---1-1-1-1--
Db:-------------------------------------------------------------------
    -gain                                                  It looks                       

eb:-------------------------------------------------------------
Bb:-------------------------------------------------------------
Gb:-------------------------------------------------------------
Db:-3-3-3-3-3-3-3-2-2-2-2-2-2-2-2-3-3-3-3-3-3-3-----------------
Ab:-5-5-5-5-5-5-5-3-3-3-3-3-3-3-3-1-1-1-1-1-1-1-3-3-3-3-3-3-3-3-
Db:---------------------------------------------3-3-3-3-3-3-3-3-
 deep enoughfrom  here 	      I'm di--          ving       this                                                                  
eb:-------------------------------------------------------------
Bb:-------------------------------------------------------------
Gb:-------------------------------------------------------------
Db:-3-3-3-3-3-3-3-2-2-2-2-2-2-2-2-4-4-4-4-4-4-4-3-3-3-3-3-3-3-3-
Ab:-5-5-5-5-5-5-5-3-3-3-3-3-3-3-3-2-2-2-2-2-2-2-1-1-1-1-1-1-1-1-
Db:-------------------------------------------------------------
cliff hasbeen well worn by ignorance                 it looks

eb:-------------------------------------------------------------
Bb:-------------------------------------------------------------
Gb:-------------------------------------------------------------
Db:-3-3-3-3-3-3-3-2-2-2-2-2-2-2-2-3-3-3-3-3-3-3-----------------
Ab:-5-5-5-5-5-5-5-3-3-3-3-3-3-3-3-1-1-1-1-1-1-1-3-3-3-3-3-3-3-3-
Db:---------------------------------------------3-3-3-3-3-3-3-3-
 deep enoughfrom  here 	      I'm di--          ving       We   

eb:---------------------------------------------------
Bb:---------------------------------------------------
Gb:--14-------------12------------10----10----10-10---
Db:---------------------------------------------------
Ab:--12-------------10-------------8888888888888888---
Db:---------------------------------------------------
float facedown but don't we look content             It looks                                                               
eb:------------------------------------------------------------------
Bb:------------------------------------------------------------------
Gb:-11--11--111111-9---9-9---9-9-9-9-7---7---7-7-7-------------------
Db:--9---9---9-9-9-7---7-7---7-7-7-7-5---5---5-5-5-7---7-7---7-7-7-7-
Ab:------------------------------------------------5---5-5---5-5-5-5-
Db:------------------------------------------------------------------
    deep enough from here          I'm diving                     This                                                     
eb:------------------------------------------------------------------
Bb:------------------------------------------------------------------
Gb:-11--11--111111-9---9-9---9-9-9-9-9---9---9-9-9-7---7-7---7-7-7-7-
Db:--9---9---9-9-9-7---7-7---7-7-7-7-6---6---6-6-6-5---5-5---5-5-5-5-
Ab:------------------------------------------------------------------
Db:------------------------------------------------------------------
    cliff has been  well worn by ignorance                   It looks                                                     
eb:------------------------------------------------------------------
Bb:------------------------------------------------------------------
Gb:-11--11--111111-9---9-9---9-9-9-9-7---7---7-7-7-------------------
Db:--9---9---9-9-9-7---7-7---7-7-7-7-5---5---5-5-5-7---7-7---7-7-7-7-
Ab:------------------------------------------------5---5-5---5-5-5-5-
Db:------------------------------------------------------------------
    deep enough from here          I'm diving                     We

eb:-------------------------------------------------------------------
Bb:-------------------------------------------------------------------
Gb:-11--11--111111-9---9-9---9-9-9-9-7---7---7-7-7-7---7-7---7-7-7-7--
Db:--9---9---9-9-9-7---7-7---7-7-7-7-5---5---5-5-5-5---5-5---5-5-5-5--
Ab:-------------------------------------------------------------------
Db:-------------------------------------------------------------------
 float facedown but don't we all look so content            It looks                                     
eb:------------------------------------------------------------------
Bb:------------------------------------------------------------------
Gb:-11--11--111111-9---9-9---9-9-9-9-7---7---7-7-7-------------------
Db:--9---9---9-9-9-7---7-7---7-7-7-7-5---5---5-5-5-7---7-7---7-7-7-7-
Ab:------------------------------------------------5---5-5---5-5-5-5-
Db:------------------------------------------------------------------
     deep                          enough                     from

eb:------------------------------------------------------------------
Bb:------------------------------------------------------------------
Gb:-11--11--111111-9---9-9---9-9-9-9-9---9---9-9-9-7---7-7---7-7-7-7-
Db:--9---9---9-9-9-7---7-7---7-7-7-7-6---6---6-6-6-5---5-5---5-5-5-5-
Ab:------------------------------------------------------------------
Db:------------------------------------------------------------------
    here                                                    It looks

eb:------------------------------------------------------------------
Bb:------------------------------------------------------------------
Gb:-11--11--111111-9---9-9---9-9-9-9-7---7---7-7-7-------------------
Db:--9---9---9-9-9-7---7-7---7-7-7-7-5---5---5-5-5-7---7-7---7-7-7-7-
Ab:------------------------------------------------5---5-5---5-5-5-5-
Db:------------------------------------------------------------------
     deep                          enough                     from

eb:------------------------------------------
Bb:------------------------------------------
Gb:-11--11--111111-9---9-9---9-9-9-9-6--7----
Db:--9---9---9-9-9-7---7-7---7-7-7-7-6--7--5-
Ab:----------------------------------4--5--5-
Db:----------------------------------------5-
     here


Thats it. I'm currently taking "thrice" tab requests or any others 
you might have. contact me at CTRDrummer@aol.com and visit my band 
Crosstown Rival at www.crosstownrival.com. or download our music 
at www.mp3.com/crosstownrival.

                                                                         
Comments