Thrice - Of Dust And Nations Chords & Tabs

 

Of Dust And Nations Chords & Tabs

Thrice Chords & Tabs

Version: 3 Type: Tab

Of Dust And Nations Tab

=============================================================================                            
OF DUST AND NATIONS
=============================================================================
                              Artist: Thrice
                              Album: Vheissu
                           As Tabbed By: Tinman
                               Drop C Tuning

> - Strumming Not Defined
~ - Let It Ring
/ - Slide Down
\ - Slide Up
10~\x
x    - Let Ring Before Sliding Up The Neck And Muting 
8 ~\x
^ - Bend String

Intro: Guitar 1 – Lead (Teppei) These are the weird whale noises.
Sounds better with tone control all the way down.
D|-11^---11^-----------------------------|
A|--------------6^~\1x----11^------------|
F|-------------------------------10~--\x-|
C|-------------------------------x-------|
G|-------------------------------8~---\x-|
C|---------------------------------------| 

Intro: Guitar 2 – Rhythm (Dustin) Starts slowly, then slows before going quickly.
D|------------------------------------------|
A|-----------14-----------------------------|
F|-----10-11----11-10---10---10---10---10---|
C|---8----------------8----8----8----8----8-|
G|------------------------------------------|
C|------------------------------------------|

Verse 1: Same as the quick part of the intro. 

Chorus (x2): Guitar 1 –Lead (Teppei)
D|-14-----14-----14----13---13---13---13---|
A|-----------------------------------------|
F|-----8------8------8----8----8----8----8-|
C|-----------------------------------------|
G|-----------------------------------------|
C|-----------------------------------------|

Chorus Cont’d.
|---13-----13-----13----11---11---11---11---|
|-------------------------------------------|
|-------8------8------8----8----8----8----8-|
|-------------------------------------------|
|-------------------------------------------|
|-------------------------------------------|

Chorus Cont’d.                                   
D|-11-----11-----11----9---9---9---9----|
A|--------------------------------------|
F|-----8------8------8---8---8---8---8--|
C|--------------------------------------|
G|--------------------------------------|
C|--------------------------------------|
 
Chorus Cont’d
|--9-----9-----9-----9-----9-----9-|
|----------------------------------|
|-----8-----8-----8-----8-----8----|
|----------------------------------|
|----------------------------------|
|----------------------------------|

Chorus Cont’d. These are the weird slide things that are in the background.
D|------------------------------------------------|
A|------------------------------------------------|
F|-8/(18)-8/(18)—--6/(16)-6/(16)—-11/(21)—11/(21)-|
C|------------------------------------------------|
G|------------------------------------------------|
C|------------------------------------------------|

Chorus (x1): Guitar 2 – Rhythm (Dustin)
D|---------------------------| You can either strum this 8 times per power 
A|---------------------------| chord, or 16 times. Both sound fine. So does
F|---------------------------| kind of playing along with the same rhythm as
C|-4>-8>-11>-6>--4>-8>-6>-4>-| Teppei’s part.
G|-4>-8>-11>-6>--4>-8>-6>-4>-|
C|-4>-8>-11>-6>--4>-8>-6>-4>-|

Verse 2: Guitar 1 – Lead (Teppei)
D|----------------------------------------|
A|---------Nothing else is played until---|
F|-10^~~----close to the end of the verse-|
C|---------That’s when you play this:-----|
G|--------------------------------|-------|
C|--------------------------------|-------|
                                  |
Verse 2 Cont’d. (x4)             \|/                 
D|------------------------------------------|  
A|-----------14-----------------------------|
F|-----10-11----11-10---10---10---10---10---|
C|---8----------------8----8----8----8----8-|
G|------------------------------------------|
C|------------------------------------------|
[ Tab from: http://www.guitartabs.cc/tabs/t/thrice/of_dust_and_nations_tab_ver_3.html ]
Then I think Dustin comes in and they both play:
D|-----------------------------------------------------------|
A|-----------------------------------------------------------|
F|-11~--10~--------------------------------------------------|
C|-11~--10~-11-11-11-11-10-10-11-11-13-13-13-13-13-13-13-11\-|
G|-9~---8~---------------------------------------------------|
C|-----------------------------------------------------------|

Chorus (x4): Guitar 1 –Lead (Teppei)
D|-14-----14-----14----13---13---13---13---|
A|-----------------------------------------|
F|-----8------8------8----8----8----8----8-|
C|-----------------------------------------|
G|-----------------------------------------|
C|-----------------------------------------|

Chorus Cont’d.
|---13-----13-----13----11---11---11---11---|
|-------------------------------------------|
|-------8------8------8----8----8----8----8-|
|-------------------------------------------|
|-------------------------------------------|
|-------------------------------------------|

Chorus Cont’d.                                   
D|-11-----11-----11----9---9---9---9----|
A|--------------------------------------|
F|-----8------8------8---8---8---8---8--|
C|--------------------------------------|
G|--------------------------------------|
C|--------------------------------------|

            Ending # 1
|--9-----9-----9-----9-----9-----9-|
|----------------------------------|
|-----8-----8-----8-----8-----8----|
|----------------------------------|
|----------------------------------|
|----------------------------------|

            Ending # 2
D|-9-----9-----9-----14-----16----16---| 
A|-------------------------------------| 
F|----8-----8-----8------8------8------| …  
C|-------------------------------------| 
G|-------------------------------------|
C|-------------------------------------|

This is the second way he plays the ending of the        
chorus riff thingy. Play both endings alternately
That mean you will play both endings twice
(1,2,1,2)

Chorus Cont’d. These are the weird slide things that are in the background.
D|------------------------------------------------|
A|------------------------------------------------|
F|-8/(18)-8/(18)—--6/(16)-6/(16)—-11/(21)—11/(21)-|
C|------------------------------------------------|
G|------------------------------------------------|
C|------------------------------------------------|

Chorus (x2): Guitar 2 – Rhythm (Dustin)
D|---------------------------| 
A|---------------------------| 
F|---------------------------|
C|-4>-8>-11>-6>--4>-8>-6>-4>-|
G|-4>-8>-11>-6>--4>-8>-6>-4>-|
C|-4>-8>-11>-6>--4>-8>-6>-4>-|


Outro: Both Guitars (I think…)  Same as Teppei’s lead chorus riff, which is:
D|-14-----14-----14----13---13---13---13---|
A|-----------------------------------------|
F|-----8------8------8----8----8----8----8-|
C|-----------------------------------------|
G|-----------------------------------------|
C|-----------------------------------------|

Outro Cont’d.
|---13-----13-----13----11---11---11---11---|
|-------------------------------------------|
|-------8------8------8----8----8----8----8-|
|-------------------------------------------|
|-------------------------------------------|
|-------------------------------------------|

Outro Cont’d.                                   
D|-11-----11-----11----9---9---9---9----|
A|--------------------------------------|
F|-----8------8------8---8---8---8---8--|
C|--------------------------------------|
G|--------------------------------------|
C|--------------------------------------|

            Ending # 1
|--9-----9-----9-----9-----9-----9-|
|----------------------------------|
|-----8-----8-----8-----8-----8----|
|----------------------------------|
|----------------------------------|
|----------------------------------|

              Ending # 2
D|-9-----9-----9-----14-----16----16-|         
A|-----------------------------------| 
F|----8-----8-----8------8------8----| 
C|-----------------------------------| 
G|-----------------------------------|
C|-----------------------------------|
Play this the same way you did the chorus
(1,2,1,2…) Play it a lot. All the way until the end
of the song.

Outro Cont’d. 
D|------------------------------------------------|
A|------------------------------------------------|
F|-8/(18)-8/(18)—--6/(16)-6/(16)—-11/(21)—11/(21)-|
C|------------------------------------------------|
G|------------------------------------------------|
C|------------------------------------------------|


Outro Cont’d. 
D|---------|
A|---------| 
F|--10^~-~-| End on this
C|--x~-~-~-|
G|--8-^~-~-|
C|---------|