Thrice - Image Of The Invisible Chords & Tabs

 

Image Of The Invisible Chords & Tabs

Thrice Chords & Tabs

Version: 1 Type: Tab 0 ratings
1 star 2 stars 3 stars 4 stars 5 stars
comments

Image Of The Invisible Tab

   
-------------------------------------------------------------------------------
			     Image Of The Invisible - Thrice
-------------------------------------------------------------------------------
Tabbed by: Zamboni

All guitars tuned to: C G C F A D

Intro/Verses (Guitar 1):
|--------------------------------------------------------------------------|
|--------------------------------------------------------------------------|
|-14-------10-------7------------------------------------------------------|
|-x--(x32)-x--(x16)-x-(x16)--(Repeat As Necessary)-------------------------|
|-12-------8--------5------------------------------------------------------|
|--------------------------------------------------------------------------|

Verse (Guitar 2):
|---------|
|---------|
|---------|
|-7~------|
|-7~------|
|-7~------|

Chorus (Half-Time Feel) (Guitars 1 & 2):
|---------------------------------------------------------------------------|
|---------------------------------------------------------------------------|
|---------------------------------------------------------------------------|
|-3------7------5-----------------------------------------------------------|
|-3-(x8)-7-(x4)-5-(x4)------------------------------------------------------|
|-3------7------5-----------------------------------------------------------|

Lead Lick (x2) (Guitar 3): (Played with Digitech Whammy Pedal)
|-----------17----20--17-----------22--22b24----20-17-19--19b20-----19----|
|-----17-------17-----------17--------------------------------------------|
|-17---------------------------17-----------------------------------------|
|-------------------------------------------------------------------------|
|-------------------------------------------------------------------------|
|-------------------------------------------------------------------------|
[ Tab from: http://www.guitartabs.cc/tabs/t/thrice/image_of_the_invisible_tab.html ]
Bridge (Guitar 1):
|----------------------------------------------------------------------------------|
|----------------------------------------------------------------------------------|
|-14-14-14--17-17---16--16---14~---------------------------------------------------|
|-x--x--x---x--x----x---x----x-~---------------------------------------------------|
|-12-12-12--15-15---14--14---12~---------------------------------------------------|
|----------------------------------------------------------------------------------|

Bridge (Guitar 2):
|---------------------------------------------------------------------------|
|---------------------------------------------------------------------------|
|---------------------------------------------------------------------------|
|-3-3-3--3-3--3--3----------------------------------------------------------|
|-3-3-3--3-3--3--3----------------------------------------------------------|
|-3-3-3--3-3--3--3----------------------------------------------------------|

Interlude (Guitars 1 & 2):
|--------------------|-------------------------------------|
|--------------------|-------------------------------------|
|----9---------------|-------------------------------------|
|-3--9--7--7/-(x2)---|-3--6--7--7/-------------------------|
|-3--8--7--7/--------|-3--6--7--7/-------------------------|
|-3--6--7--7/--------|-3--6--7--7/-------------------------|

Last Chorus (Guitars 1 & 2): (With Lead Lick playing in background)
|---------------------------------------------------------------------------|
|---------------------------------------------------------------------------|
|----------5----------------------------------------------------------------|
|-3--5--7--5--(Repeat As Necessary)-----------------------------------------|
|-3--5--7--3----------------------------------------------------------------|
|-3--5--7-------------------------------------------------------------------|

Outro (Guitar 1):
|--------------------------------------------------|
|--------------------------------------------------|
|-17-17-16---16-17-14---17-17-16---16-17-14---9/10-|
|-x--x--x----x--x--x----x--x--x----x--x--x----x/x--|
|-15-15-14---14-15-12---15-15-14---14-15-12---7/8--|
|--------------------------------------------------|

Outro (Guitar 2):
|------------------------------------|
|------------------------------------|
|------------------------------------|
|-3-3-3------------------------------|
|-3-3-3--(Repeat til Guitar 1 ends)--|
|-3-3-3------------------------------|
Comments